música
Buscador

Acorde de Vasos De Roma Y Ginebra - Mikel Erentxun

Letra de Vasos De Roma Y Ginebra

E:  022100

A: 002220

B: 224442

C#m:446654

D: 000232

----------



[intro]

E A E B E A E B E A E B E A E B

E-||--5/7-----5-7-4-----------------------------------5/7-----5-7-4-------------------------------

B-||----------------------5-7---------------------------------------------5-7-5-------------------

G-||--------------------------4-------------------------------------------------------------------

D-||----------------------------------------------------------------------------------------------

A-||----------------------------------------------------------------------------------------------

E-||----------------------------------------------------------------------------------------------



E A E B

No era mi idea volverte a llamar

E A E B

pero Agosto es lluvioso y no da cuartel

E A E B E A E B

dice que hay muchas cosas que nunca te dije

E A E B

Países enteros haciendo autostop

E A E B

Europa es tu risa al anochecer

E A E B E A E B

cuando bebíamos vasos de roma y ginebra



A B

Cómo hacerte creer

E C#m

que nunca he dejado de pensar en ti

A B E

cómo jurar que aún te quiero



[repetir intro]





E A E B

Un mal dormir y un peor despertar

E A E B

mi humor despeinado me suele durar

E A E B E A E B

hasta que alguien me ayuda a ver las estrellas

E A E B

Tal vez no soy lo mejor para ti

E A E B

pero sé que llevabas puesto en Dublín

E A E B E A E B

recuerdo también que no llevabas en Praga



http://www.coveralia.com/acordes/vasos-de-roma-y-ginebra-mikel-erentxun.php

A B

Cómo hacerte creer

E C#m

que nunca he dejado de pensar en tí

A B E

cómo jurar que aún te quiero



E A E B E A E B E A E B E A E B

E-||--5/7-----5-7-4-----------------------------------4-7-----5-7-4----12-14-12-------------------

B-||----------------------5-7-------------------4-5-7---------------------------------------------

G-||--------------------------4---------------6---------------------------------------------------

D-||----------------------------------------------------------------------------------------------

A-||----------------------------------------------------------------------------------------------

E-||----------------------------------------------------------------------------------------------





E A E B

No era mi idea volverte a llamar

E A E B

no entraba en mis planes volverte a enredar

E A E B E A E B

si eres feliz con algún infeliz estupendo

E A E B

Y si un taxi en marcha te espera al salir

E A E B

paga mi amor que se vaya sin ti

E A E B E A E B

sigamos bebiendo vasos de roma y ginebra





A B

Cómo hacerte creer

E C#m

que nunca he dejado de pensar en ti

A B

Cómo hacerte creer

E C#m

que nunca he dejado de pensar en ti

A B E A E B

cómo jurar que aún te quiero

E A E B

que aún te quiero

E A E B



E A E B

que aún te quiero



D A E





Letra subida por: Anónimo

Discos en los que aparece este acorde: Ciudades De Paso

El acorde de Vasos De Roma Y Ginebra de Mikel Erentxun es una versión de la canción original realizada por colaboradores/usuarios de Coveralia.

¿Has encontrado algún error en esta página? Envíanos tu corrección del acorde