música
Buscador

Acorde de Vamos Muy Bien - Obus

Letra de Vamos Muy Bien

 INTRO (repetir 2 veces)

|-------------------------------------------------------|

|-------------------------------------------------------|

|-------------------------------------------------------|

|----------2---------x-x-x------2-------2-------2---5---|

|----------0---------x-x-x------0-------0-------0---3---|

|--0---3-------3-----x-x-x----------3-------3-----------|





|-------------------------------3----------2------------|

|-------------------------------3----------3------------|

|-------------------------------0----------2------------|

|----------2---------x-x-x-----------------0------------|

|----------0---------x-x-x------------------------------|

|--0---3-------3-----x-x-x------------------------------|





|-------------------------------------------------------|

|-------------------------------------------------------|

|-------------------------------------------------------|

|----------2---------x-x-x------2-------2-------2---5---|

|----------0---------x-x-x------0-------0-------0---3---|

|--0---3-------3-----x-x-x----------3-------3-----------|





|-------------------------------3----------2------------|

|-------------------------------3----------3------------|

|-------------------------------0----------2------------|

|----------2---------x-x-x-----------------0------------|

|----------0---------x-x-x------------------------------|

|--0---3-------3-----x-x-x------------------------------|





PARTE EN QUE SE CANTA

Vamos amigo y bebe conmigo

|-------------------------------------------------------|

|-------------------------------------------------------|

|-------------------------------------------------------|

|----------2---------x-x-x------2-------2-------2---5---|

|----------0---------x-x-x------0-------0-------0---3---|

|--0---3-------3-----x-x-x----------3-------3-----------|



acaba tu copa que quiero mas

|-------------------------------3----------2------------|

|-------------------------------3----------3------------|

|-------------------------------0----------2------------|

|----------2---------x-x-x-----------------0------------|

|----------0---------x-x-x------------------------------|

|--0---3-------3-----x-x-x------------------------------|



hoy es una noche como otra cualquiera

|-------------------------------------------------------|

|-------------------------------------------------------|

|-------------------------------------------------------|

|----------2---------x-x-x------2-------2-------2---5---|

|----------0---------x-x-x------0-------0-------0---3---|

|--0---3-------3-----x-x-x----------3-------3-----------|



nadie nos espera solo unos litros de alcohol

|-------------------------------3----------2------------|

|-------------------------------3----------3------------|

|-------------------------------0----------2------2-----|

|----------2---------x-x-x-----------------0------2-----|

|----------0---------x-x-x------------------------0-----|

|--0---3-------3-----x-x-x------------------------------|



todo da vueltas hablo sin parar

|-------------------------------------------------------|

|-------------------------------------------------------|

|-------------------------------------------------------|

|----------2---------x-x-x------2-------2-------2---5---|

|----------0---------x-x-x------0-------0-------0---3---|

|--0---3-------3-----x-x-x----------3-------3-----------|



cuento mis penas a un viejo sofá

|-------------------------------3----------2------------|

|-------------------------------3----------3------------|

|-------------------------------0----------2------------|

|----------2---------x-x-x-----------------0------------|

|----------0---------x-x-x------------------------------|

|--0---3-------3-----x-x-x------------------------------|



mi amigo ha salido tiene que evacuar

|-------------------------------------------------------|

|-------------------------------------------------------|

|-------------------------------------------------------|

|----------2---------x-x-x------2-------2-------2---5---|

|----------0---------x-x-x------0-------0-------0---3---|

|--0---3-------3-----x-x-x----------3-------3-----------|



dentro de un momento mas litros de alcohol caerán

|-------------------------------3----------2------------|

|-------------------------------3----------3------------|

|-------------------------------0----------2------2-----|

|----------2---------x-x-x-----------------0------2-----|

|----------0---------x-x-x------------------------0-----|

|--0---3-------3-----x-x-x------------------------------|





PUENTE

|-------------------------------|

|-------------------------------|

|-4-----4-----4---4-----4-----4-|

|-2-2-2-2-2-2-2-2-2-2-2-2-2-2-2-|

|-------------------------------|

|-------------------------------|

· · · · · · · · ·



ESTRIBILLO

Vamos muy bien borrachos como cubas y que aun nos mante

|---------3----2----------------------------3----2-----------------|

|---------3----3----------------------------3----3-----------------|

|-2--2----0----2----24--2----2-----2--2----0----2----24--2-----2-|

|-2--2---------0-----------3--------2--2---------0------------3----|

|-0--0------------------------------0--0---------------------------|

|------------------------------------------------------------------|



ne mos en pie y ya no pararemos hasta no poder ver

http://www.coveralia.com/acordes/vamos-muy-bien-obus.php

|---------3----2-----------------------------------------------------|

|---------3----3--------------------5--5---------5-------------------|

|-2--2----0----2----24--2----2-----4--4----2----4---24--2----2---2-|

|-2--2---------0-----------3--------2--2----2----2-----------3-----2-|

|-0--0--------------------------------------0----------------------0-|

|--------------------------------------------------------------------|





PARTE EN QUE SE CANTA

Veo dobles cara luces que andan solos

|-------------------------------------------------------|

|-------------------------------------------------------|

|-------------------------------------------------------|

|----------2---------x-x-x------2-------2-------2---5---|

|----------0---------x-x-x------0-------0-------0---3---|

|--0---3-------3-----x-x-x----------3-------3-----------|



maniquíes que ríen mil bromas pesadas

|-------------------------------3----------2------------|

|-------------------------------3----------3------------|

|-------------------------------0----------2------------|

|----------2---------x-x-x-----------------0------------|

|----------0---------x-x-x------------------------------|

|--0---3-------3-----x-x-x------------------------------|



ya perdí la cuenta abro otra botella

|-------------------------------------------------------|

|-------------------------------------------------------|

|-------------------------------------------------------|

|----------2---------x-x-x------2-------2-------2---5---|

|----------0---------x-x-x------0-------0-------0---3---|

|--0---3-------3-----x-x-x----------3-------3-----------|



siempre encuentro algo por lo que esta noche brindar

|-------------------------------3----------2------------|

|-------------------------------3----------3------------|

|-------------------------------0----------2------2-----|

|----------2---------x-x-x-----------------0------2-----|

|----------0---------x-x-x------------------------0-----|

|--0---3-------3-----x-x-x------------------------------|



tiro de mi amigo o él tira de mí

|-------------------------------------------------------|

|-------------------------------------------------------|

|-------------------------------------------------------|

|----------2---------x-x-x------2-------2-------2---5---|

|----------0---------x-x-x------0-------0-------0---3---|

|--0---3-------3-----x-x-x----------3-------3-----------|



no tiene importancia quién tira de quién

|-------------------------------3----------2------------|

|-------------------------------3----------3------------|

|-------------------------------0----------2------------|

|----------2---------x-x-x-----------------0------------|

|----------0---------x-x-x------------------------------|

|--0---3-------3-----x-x-x------------------------------|



calimocho whisky birra pepermín

|-------------------------------------------------------|

|-------------------------------------------------------|

|-------------------------------------------------------|

|----------2---------x-x-x------2-------2-------2---5---|

|----------0---------x-x-x------0-------0-------0---3---|

|--0---3-------3-----x-x-x----------3-------3-----------|



soy un cóctel que anda y se tiene solo de pie

|-------------------------------3----------2------------|

|-------------------------------3----------3------------|

|-------------------------------0----------2------2-----|

|----------2---------x-x-x-----------------0------2-----|

|----------0---------x-x-x------------------------0-----|

|--0---3-------3-----x-x-x------------------------------|





PUENTE

|-------------------------------|

|-------------------------------|

|-4-----4-----4---4-----4-----4-|

|-2-2-2-2-2-2-2-2-2-2-2-2-2-2-2-|

|-------------------------------|

|-------------------------------|

· · · · · · · · ·



ESTRIBILLO

Vamos muy bien borrachos como cubas y que aun nos mante

|---------3----2----------------------------3----2-----------------|

|---------3----3----------------------------3----3-----------------|

|-2--2----0----2----24--2----2-----2--2----0----2----24--2-----2-|

|-2--2---------0-----------3--------2--2---------0------------3----|

|-0--0------------------------------0--0---------------------------|

|------------------------------------------------------------------|



ne mos en pie y ya no pararemos hasta no poder ver

|---------3----2-----------------------------------------------------|

|---------3----3--------------------5--5---------5-------------------|

|-2--2----0----2----24--2----2-----4--4----2----4---24--2----2---2-|

|-2--2---------0-----------3--------2--2----2----2-----------3-----2-|

|-0--0--------------------------------------0----------------------0-|

|--------------------------------------------------------------------|





Vamos muy bien borrachos como cubas y que aun nos mante

|---------3----2----------------------------3----2-----------------|

|---------3----3----------------------------3----3-----------------|

|-2--2----0----2----24--2----2-----2--2----0----2----24--2-----2-|

|-2--2---------0-----------3--------2--2---------0------------3----|

|-0--0------------------------------0--0---------------------------|

|------------------------------------------------------------------|



ne mos en pie y ya no pararemos hasta no poder ver

|---------3----2-----------------------------------------------------|

|---------3----3--------------------5--5---------5-------------------|

|-2--2----0----2----24--2----2-----4--4----2----4---24--2----2---2-|

|-2--2---------0-----------3--------2--2----2----2-----------3-----2-|

|-0--0--------------------------------------0----------------------0-|

|--------------------------------------------------------------------|

Letra subida por: Anónimo

El acorde de Vamos Muy Bien de Obus es una versión de la canción original realizada por colaboradores/usuarios de Coveralia.

¿Has encontrado algún error en esta página? Envíanos tu corrección del acorde