música
Buscador

Acorde de Vaivén - Chayanne

Letra de Vaivén

Punteo inicial:                  %% 

1--------------------------------5--------------5---------------5-

2--------------------------------5--------------5---------------5-

3--------------------------------5--5-4-2-------5--5-4-2--------5-

4-2.--------2.----3-2--2.--------7-7-----5-2-0--7-7-----5-2-5-2-7-

5-0.3--3-2--0.-3-----2-0.3--3-2--7------------3-7---------------7-

6----0.---4-----0.--------0.---4-5--------------5---------------5-



1-----------------------------------------------------------------

2-----------------------------------------------------------------

3---5-4-2---------------------------------------------------------

4-7------5-2-0--0----5-------------5------------------------------

5-------------3---5/7--7/5-3--3-5/7--7/5-3------------------------

6---------------------------5-------------5-3-5-------------------



Am E/G# Am E/G# Dm

Se me enreda en la cintura,me desata la locura.Sube y baja por mi

C F6 E

espalda,me estremece,me desarma.

Am E/G# Am E/G# Dm

Es un callejon a oscuras,es la sombra de mis dudas.Agua dulce en el

C F6 E

desierto,el final de cada cuento.



CORO:

Am E/G# Am E/G#

Es el amor,que sube despacito por mi corazon,y va dejando en

Am E/G# F6

cada rincon.Y viene y va,y en el Vaiven,ahora te quiero y

E

ahora no se.

Am E/G# Am

http://www.coveralia.com/acordes/vaiven-chayanne.php

Es el amor,que sabe que esos ojos son mi perdicion.Que me

E/G# Am E/G#

dice que si,aunque yo diga no.Y viene y va,y en el Vaiven.

F6 E

Por cada beso,me roba tres. (Punteo 1:Ver Punteo Inicial

desde el signo %%.



Se me escapa entre los dedos,es el dueño de los celos.Y su



nombre esta grabado,en la palma de mi mano.



Es corriente que me arrastra,es el sueño que me falta.Es mi



noche de verano,pedacitos de pecado.(CORO+PUNTEO 2+CORO+CORO)





PUNTEO 2:

1-----------------------------------------10---10+12-12-12-----

2---------8+10-9---12-10-13-13-13-12-10-12--13.-----------15(17)

3----5-7/9---------------9-------------------------------------

4-5-7-----------9-9------9-------------------------------------

5--------------------------------------------------------------

6--------------------------------------------------------------



1--------------------------------------------------------------

2-15--13-15(17)15-13-------8-----------------------------------

3---14--------------14-7/9--7+9-7+5----------------------------

4----------------------------------7-5-7-----------------------

5--------------------------------------------------------------

6--------------------------------------------------------------

7/9=Deslizar 8+9=Notas ligadas 15(17)=Estirar cuerda

Letra subida por: Anónimo

Discos en los que aparece este acorde: Sincero

El acorde de Vaivén de Chayanne es una versión de la canción original realizada por colaboradores/usuarios de Coveralia.

¿Has encontrado algún error en esta página? Envíanos tu corrección del acorde