música
Buscador

Acorde de Useless - Depeche Mode

Letra de Useless

 e-|---------5-4-2-------2-----| 

B-|-4-4-2-4-------4-2-4---4-4-|

G-|---------------------------| play four

D-|---------------------------| times

A-|---------------------------|

E-|---------------------------|



D#m F# B

Well it's about time

D#m F# B

It's beginning to hurt

D#m F# B

Time you made up your mind

D#m F# B

Just what is it all worth



Bbm B

All my useless advice

Bbm B

All my hanging around

Bbm B

All your cutting down to size

C# B Bbm

All my bringing you down



e-|---------5-4-2-------2-----|

B-|-4-4-2-4-------4-2-4---4-4-|

G-|---------------------------| play four

D-|---------------------------| times

A-|---------------------------|

E-|---------------------------|



D#m F# B

Watch the clock on the wall

D#m F# B

Feel the slowing of time

D#m F# B

Hear a voice in the hall

D#m F# B

http://www.coveralia.com/acordes/useless-depeche-mode.php

Echoing in my mind



Bbm B

All your stupid ideals

Bbm B

You've got your head in the clouds

Bbm B

You should see how it feels

C# B Bbm

With your feet on the ground



D#m F# B

Here I stand the accused

D#m F# B

With your fist in my face

D#m F# B

Feeling tired and bruised

D#m F# B

With the bitterest taste



Bbm B

All my useless advice

Bbm B

All my hanging around

Bbm B

All your cutting down to size

C# B

All my bringing you down



Bbm B

All your stupid ideals

Bbm B

You've got your head in the clouds

Bbm B

You should see how it feels

C# B Bbm

With your feet on the ground

Letra subida por: Anónimo

Discos en los que aparece este acorde: The Singles 86-98 , Ultra

El acorde de Useless de Depeche Mode es una versión de la canción original realizada por colaboradores/usuarios de Coveralia.

¿Has encontrado algún error en esta página? Envíanos tu corrección del acorde