música
Buscador

Acorde de Up Around The Bend - Creedence Clearwater Revival

Letra de Up Around The Bend

 Intro: 



E|-----------10--------------------|----------10--------------------|----------5-------------------|

B|--------------10-----10----------|-------------10----10-----------|------------5---5-------------|

G|------9/11-------11--------------|-----9/11-------11--------------|-----4/6------6---------------|

D|---0-----------------------------|--0-----------------------------|------------------------------|

A|---------------------------------|--------------------------------|--0---------------------------|

e|---------------------------------|--------------------------------|------------------------------|



E|----------10------------------------|

B|-------------10----10---------------|

G|-----9/11-------11------------------| 2x

D|---0--------------------------------|

A|------------------------------------|

e|------------------------------------|





D

There's a place up ahead and I'm goin'

A A7 D

just as fast as my feet can fly.

D

Come away, come away if you're goin',

A A7 D

leave the sinkin' ship behind.

G D A

C'mon the risin' wind,

G D A

http://www.coveralia.com/acordes/up-around-the-bend-creedence-clearwater-revival.php

we're goin' up around the bend. Whoooh.





Bring a song and a smile for the banjo, better get while the gettin's good.

Hitch a ride to the end of the highway where the neons turn to wood.

C'mon the risin' wind, we're goin' up around the bend. Whoooh.



You can ponder perpetual motion, fiz your mind for a crystal day.

Always time for a good conversation, there's an ear for what you say.

C'mon the risin' wind, we're goin' up around the bend. Ihhhehhh



Intro 2x

Solo



Catch a ride to the end of the highway and we'll meet by the big red tree.

There's a place up ahead and I'm goin', come along, come along with me.

C'mon the risin' wind, we're goin' up around the bend.



e|-----------------------------------------------------------------------------|

B|---------10~~-------10~~-------10~~--------------10~~-------10~~-------------| Repita isso

G|---9h11-------9h11-------9h11-------11x----9h11-------9h11--------11b--7~----| ateh acaba

D|-----------------------------------------------------------------------------| a musica

A|-----------------------------------------------------------------------------|

E|-----------------------------------------------------------------------------|

x= stacatto





Letra subida por: Anónimo

El acorde de Up Around The Bend de Creedence Clearwater Revival es una versión de la canción original realizada por colaboradores/usuarios de Coveralia.

¿Has encontrado algún error en esta página? Envíanos tu corrección del acorde