música
Buscador

Acorde de José José - Una Mañana - Bso Buscando Una Sonrisa

(NOTA: Se toca el circulo rapido, se escucha mejor

si se toca en quinta, por ejemplo A5 en lugar

de Am, D5 en lugar de Dm, G5 en vez de G, C5 en

lugar de C, osea que solo suenas las cuerdas mas graves)



*Verso:



A5 D5 G5 C5

Una mañana

A5 D5 G5 C5

una mañana linda

D5 G5

como una flor

C5 F5 A5 D5 G5 C5

tu corazon al sol le mostraras,

A5 D5 G5 C5

una mañana

A5 D5 G5 C5

una mañana linda

D5 G5

mi corazon

C5 F5 A5 D5 G5 C5

como una flor a ti se entregara.





*Coro:



Gm F

Linda sera cuando me digas creo en tu amor

Gm

me digas que no sientes temor

F Dm

y cuando salga el sol sera

A5 D5 G5 C5

una mañana

A5 D5 G5 C5

una mañana linda

D5 G5

como la flor

C5 F5 A5 D5 G5 C5

como el amor que siempre te daré.



http://www.coveralia.com/acordes/una-manana-jose-jose.php

D5 G5 C5 F5 A5 D5 G5 C5

Como una flor, tu corazón al sol le mostrará



1. ----------------------------------------------------------------------|

2. ----------------------6-----------------------------------------------|

3. -------5-7--------5-7---7-------7-7-5------7------------5--6--5-------|

4. -5-7-8------5-7-8-------------5--------------7-8-7---8-----------8--5-|

5. ----------------------------5-----------------------------------------|

6. ----------------------------------------------------------------------|



D5 G5 C5 F5 A5 D5 G5 C5

mi corazón como una flor a ti se entregará.



1. -----------------------------------------------------------------------|

2. ----------------------6------------------------------------------------|

3. -------5-7--------5-7---7--------7-7-5---7---------------5--6--5-------|

4. -5-7-8------5-7-8--------------5------------7--8--7---8-----------8--5-|

5. -----------------------------5-----------------------------------------|

6. -----------------------------------------------------------------------|



Gm F

Linda sera cuando me digas creo en tu amor

Gm

me digas que no sientes temor

F Dm

y cuando salga el sol sera

A5 D5 G5 C5

una mañana

A5 D5 G5 C5

una mañana linda

D5 G5

como la flor

C5 F5 A5 D5 G5 C5

como el amor que siempre te daré

A5 D5 G5 C5

que siempre te daré

Gm

que siempre te daré.







Letra subida por: Anónimo

Discos en los que aparece este acorde: Bso Buscando Una Sonrisa , Jose Jose , Jose Jose , Jose Jose , Jose Jose , Jose Jose , Jose Jose , Jose Jose

El acorde de José José - Una Mañana de Bso Buscando Una Sonrisa es una versión de la canción original realizada por colaboradores/usuarios de Coveralia.

¿Has encontrado algún error en esta página? Envíanos tu corrección del acorde