música
Buscador

Acorde de Una Lágrima Por Ti - Miguel Gallardo



INTRO



Bb Gm Bb D#

e --------------------------------------------

B ---------6--------------------6-6-----------

G ---7-8-7------7-8-7-----7-8-7-----7-8-7-----

D --------------------8-------------------8---

A --------------------------------------------

E --------------------------------------------

Cm D# Cm D# Cm D# Bb F

e --------------------------------------------

B ------6---8-----6----------6---8-----6------

G ----8---8-----8---8--5---8---8-----8--------

D --------------------------------------------

A --------------------------------------------

E --------------------------------------------







Bb Dm

Si algún día fui feliz y aprendí lo que es amar

Gm Bb Cm D#

desde el principio hasta el fin... fue por tu amor



Cm D#

SI MI corazón se Abrió como la primera vez

Cm D# F Bb F

y lo iluminó tus ojos... fue por tu amor



Bb Dm

Si aposté todo por ti y jugué tan de verdad

Fm Bb D# Cm

que hasta me olvidé de mi... fue por tu amor



Bb Gm Cm F

Pero a ti te daba igual y quisiste ser feliz

Bb F

con otro amor



Bb Dm

Hoy me llamas otra vez suplicándome volver

D

porque te engañó la vida

Gm

Hoy que ya no puedo yo

Fm

que tu herida la cerró el amor de otra mujer



D#

Pero al escuchar tu voz

F Dm Gm

casi a punto de llorar, repetir que te ha ido ma...aaal

Cm D#

brota de mi corazón

F D#

una lágrima por ti,

F Bb

una lágrima por ti





http://www.coveralia.com/acordes/una-lagrima-por-ti-miguel-gallardo.php

SOLO



Bb Fm D# G#m Dm Gm Cm F Bb F

e ---------6--------6--8---6----------------8--6-----11-10-------

B -------6--------6------8-----7-6--------6---------------11-11--

G ---7-8------7-8------------------8--7-8------------------------

D ---------------------------------------------------------------

A ---------------------------------------------------------------

E ---------------------------------------------------------------



Bb Dm

Si te vi partir sin mi, si confieso que lloré

Gm Bb Cm D#

y me quise hasta morir... fue por tu amor



Cm D#

Si mi corazón fue cruel y queriéndose vengar

Cm D# F Bb F

hizo daño sin querer... fue por tu amor



Bb Dm

Si aprendí a sobrevivir, a olvidar, a sonreír

Fm Bb D# Cm

y a encontrar un nuevo amor... fue por tu amor



Bb Gm Cm F

Pero a ti te daba igual, tú seguías muy feliz

Bb F

con tu otro amor



Bb Dm

Hoy me llamas otra vez suplicándome volver

D

porque te engañó la vida

Gm

Hoy que ya no puedo yo

Fm

que tu herida la cerró el amor de otra mujer



D#

Pero al escuchar tu voz

F Dm Gm

casi a punto de llorar, repetir que te ha ido ma...aaal

Cm D#

brota de mi corazón

F D#

una lágrima por ti,

F Bb

una lágrima por ti



SOLO



Bb Fm D# G#m Dm Gm Cm F Bb

e ---------6--------6--8---6----------------8--6-----11-10-------

B -------6--------6------8-----7-6--------6---------------11-11--

G ---7-8------7-8------------------8--7-8------------------------

D ---------------------------------------------------------------

A ---------------------------------------------------------------

E ---------------------------------------------------------------

Letra subida por: Anónimo

Discos en los que aparece este acorde: Mi Historia , Corazon Viajero , 20 Autenticos Exitos Originales

El acorde de Una Lágrima Por Ti de Miguel Gallardo es una versión de la canción original realizada por colaboradores/usuarios de Coveralia.

¿Has encontrado algún error en esta página? Envíanos tu corrección del acorde