música
Buscador

Acorde de Un Minuto - Balak



INTRO: [00:04]

F Gm

E---------------------------------------------------------------

A---------------------------------------------------------------

D---------------------------------------------------------------

G---------------------------------------------------------------

B---------------------------------------------------------------

E-15-17-18-17-20-18-17---13--15-15-17-15--15-18-17-15-----------

A# (00:06) F

E---------------------------------------------------------------

A---------------------------------------------------------------

D---------------------------------------------------------------

G---------------------------------------------------------------

B----------------------------------8-10-------------------------

E-13-8s10-------17-15-13---8s10-8-------------------------------



ESTROFA 1

F Gm A# F

Compartimos tanto amor, que será difícil olvidarte

F Gm A# F

No se como viviré, sin tus besos sin tu compañía.



PRECORO

Am A# Am A#

Porque en ti el amor desapareció, que nos paso,

C

Pero por favor.



CORO

F C A# C

Dame un minuto para decir, todo lo que significas para mí,

F C A# C

Solo un minuto quiero sentir, el calor de tu piel junto a mí

F

La última ves.

F(01:18) Gm(01:21)

E-----------------------------------------------------------

A-----------------------------------------------------------

D-----------------------------------------------------------

G-----------------------------------------------------------

B-----------------------------------------------------------

E-15-17-18-17--17-20-18-17---13--15-15-17-15--15-18-17-15---

A#(01:24) F

E-----------------------------------------------------------

A-----------------------------------------------------------

D-----------------------------------------------------------

G-----------------------------------------------------------

B--------------------------------------------8-10---8-------

E 13-8s10---13-15-13---13-17-15-13----8s10-8----------10----



ESTROFA 2

F Gm A# F

http://www.coveralia.com/acordes/un-minuto-balak.php

Con la fuerza de un volcán, así es como te amo yo,

F Gm A# F

Otros besos otra piel, me quedare solo en el olvido



PRECORO

Am A# Am A#

Porque en ti el amor desapareció, que nos paso,

C

Pero por favor.



CORO

F C A# C

Dame un minuto para decir, todo lo que significas para mí,

F C A# C

Solo un minuto quiero sentir, el calor de tu piel junto a mí

F C

Que voy a hacer, si no estahahahaas

A# C F C A#

Que voy a hacer si te vahahahaaas huo huo no

F C A#

Huuu si no estaaaaaaaaaaahaha has no no huo huo

C

Huo huo huo



PUNTEO FINAL

F Gm

E-----------------------------------------------------------

A-----------------------------------------------------------

D-----------------------------------------------------------

G-----------------------------------------------------------

B-----------------------------------------------------------

E-17-18-17--17-20-18-17---13--15-15-17-15--15-18-17-15------

A# F

E----------------------------------------------------1------

A----------------------------------------------------3------

D----------------------------------------------------3------

G----------------------------------------------------2------

B----------------------------------------------------1------

E 13-8s10---13-15-13---13-17-15-13----8s10-----------1------



NOTA:

El signo “s” que esta en medio de los números 8 y 10 quiere

Decir “slide” que en ingles significa deslizar. Esto se hace

Colocando el dedo índice o el medio, o con el que te acomodes

En el traste que aparece antes del la letra “s” y después

Deslizarlo hasta el traste que aparece después de la letra “s”

Pero sin quitar el dedo de la cuerda.

También los números que pongo arriba de los arpegios como por

Ejemplo “00:04”significa el tiempo en el que se hace ese arpegió

En la canción.



Letra subida por: Anónimo

Discos en los que aparece este acorde: Balak

El acorde de Un Minuto de Balak es una versión de la canción original realizada por colaboradores/usuarios de Coveralia.

¿Has encontrado algún error en esta página? Envíanos tu corrección del acorde