música
Buscador

Acorde de Tu Nombre - Parchis

Letra de Tu Nombre

            D                    Bm

E----------------------|---------------------

B-----------7---10--7--|---------7---10--7---

G-------7-9-------9--7-|-----7-9-------9--7--

D---7-9----------------|-7-9-----------------

A----------------------|---------------------

E----------------------|---------------------



Em G A

E------------7-------|-----------------------

B--------7-8--7---8--|-7-8-10-7-----7-8------

G----6-7-----------9-|------------9-----9----

D--9-----------------|-----------------------

A--------------------|-----------------------

E--------------------|-----------------------





D Bm

Y tu nombre me persigue

D A

No me deja ni estudiar

Bm G

Es quizás porque tú quieres

E A

Dominar mi voluntad



Caminando hacia el colegio

Coincidimos al andar

Tú no me hablas y yo siento

Que no encuentro de que hablar



D Em

Y a ti te pasa igual que a mí

A D

Y a mí igual que a ti

http://www.coveralia.com/acordes/tu-nombre-parchis.php

Bm F#m

Yo no sé si eso es normal

Bm F#m

Nuestra edad es especial

Em

Especial

A A7

Especiaaaaaaaal



Y tu nombre me acorrala

Me obsesiona cada día más

No me deja ni un minuto en paz

No puedo respirar



Y a ti te pasa igual que a mí

Y a mí igual que a ti

Yo no sé si eso es normal

Nuestra edad es especial

Especial

Especiaaaaaaaal



Dale tiempo a nuestro tiempo

Porque nuestra realidad

Es que tú y yo somos uno

Y aún tenemos que esperar



Y tu nombre me acorrala

Me obsesiona cada día más

No me deja ni un minuto en paz

A - A7

No puedo

D

respiraaaaaaar

Letra subida por: Anónimo

Discos en los que aparece este acorde: Twist Del Colegio

El acorde de Tu Nombre de Parchis es una versión de la canción original realizada por colaboradores/usuarios de Coveralia.

¿Has encontrado algún error en esta página? Envíanos tu corrección del acorde