música
Buscador

Acorde de Tu Corazón - Extremoduro

Letra de Tu Corazón

e---------------------------------------------------------------------

b---------------------------------------------------------------------

g--------------------------------------------------------12-11h12p11--

d----12---10---9-------12---10---9--------15-14h15p14-----------------

a--------------------------------------0---------------0--------------

e--0----0----0-------0----0----0--------------------------------------



e-----------------------------------------------------------------------

b-----------------------------------------------------13-12-------------

g--------------------------------------------12-11----------12-11-------

d-----14-13-10-9-10p9p7-------15-14h15p14-------------------------14-13-

a--0-----------------------0---------------0--------0-------------------

e-----------------------------------------------------------------------



e--------------------------------------------------------------------

b--------------------------------------------------------------------

g-------------------------5-7-7b------------Riff-1-(guitarra-2)------

d---9--9h10p9p7-------5h7-----------[-7-7--7-7--5-5--7-7]------------

a-----------------------------------[-0-0--0-0--0-0--0-0]------------

e--------------------------------------------------------------------



MIm REm LAm MI (guitarra 2)

e--------------------------------------------------------------------

b--------------------------------------------------------------------

g--7b-----7-------5--------------5-7-5-4-(guitarra 1)----------------

d--------------------------------------------------------------------

a--------------------------------------------------------------------

e--------------------------------------------------------------------





Riff 1

Tu corazón, embalsamado como un cebo,

hoy me recuerda un mojicón

veo que me añurgo si no bebo.



LAm

Tu corazón, mitad de coca y de caballo,

MIm REm

como te atrevas a decir

LAm MI

que estás de mono, te machaco.



LAm

Mi corazón, acorazado como un cayo

REm SOL MI

aún necesita saber como te pones al ver cuando se baja los calzones

mi corazón que lo perdí en un mes de mayo se lo encontraron

en un bar donde se moja con luces rojas.



(todo igual)

Tú por hacer, yo por quedarme tan parado

http://www.coveralia.com/acordes/tu-corazon-extremoduro.php

y los dos juntos por tener

nuestra cabeza en otro lado.



Tú por hablar, yo por callarme demasiado

tú por robarme esa canción

que ya te había regalado.



Tu corazón, que tú sabrás donde lo pones

pero tienes que entender, con tanto hacerme correr

me estas tocando los cojones.



Mi corazón, como una lata de cerveza

que te la bebes y al final le das patadas sin pensar

que me desquicias la cabeza.





e-------------------------------------------------------------------

b-(guitarra 1)----------------(guit-1)------------------------------

g-----5--------------------------5----------------------------------

d--7--5--7-5-7---(guitar-2)---7--5--7-5-7----------------------(X2)-

a--7-----7-5-7--------re5-----7-----7-5-7------(guitarra 2)---------

e----------------Sol5----------------------Fa5 Fa#5 sol5 sol#5------



e--------------------------------------------------------------------

b--------------------------------------------------------------------

g-----7---------------------------7----------------------------------

d--9--7--9-7-9-----------------9--7--9-7-9----------------------(X2)-

a--9-----9-7-9--------mi5------9-----9-7-9---------------------------

e----------------la5------------------------sol5-sol#5-la5-la#5------







SI5

No encuentro otra razón

RE5

estaba tan feliz

MI5 SOL5 FA#5 FA5 MI5

me acuerdo de tu amor.



SI5

Vendí mi porvenir

RE5 MI SOL

cogiendo moscas para tí.



No valgo para estar

metido en un puré

me gusta mi sabor.



Ando loco por la calle. (BIS)

El acorde de Tu Corazón de Extremoduro es una versión de la canción original realizada por colaboradores/usuarios de Coveralia.

¿Has encontrado algún error en esta página? Envíanos tu corrección del acorde