música
Buscador

Acorde de Trailerpark - Blur

Letra de Trailerpark

Am 

I'm a country boy, I have no soul



I don't sleep at night, the world's growin' old



I lost my girl to a rolling stone



Em

I lost my girl to the rolling stones



(Chorus)



Dm Am Fm Em

e --1-0---------------0---------------------1-----1-------0-------0----|

B --3---3-2-1-0---------1-0-----------------1-------------0---------0--|

G --2-----------2-0-2-----------------------1---1---------0-0-1--------|

http://www.coveralia.com/acordes/trailerpark-blur.php

D --0---------------------------------------3-3-----3-3/5-2------------|

A --------------------------0-0-0-0-0-0-0-2-3-------3-3/5-2------------|

E ------------------------------------------1-------1-1/3-0------------|



(Solo)



(outro)



e -----------------------------------------------|

B -----------------------------------------------|

G --7777-7777-101010-9-99-7777-7777-101010-5-55--|

D --7777-7777-101010-9-99-7777-7777-101010-5-55--|

A --5555-5555--8-8-8-7-77-5555-5555--8-8-8-3-33--|

E -----------------------------------------------|

Letra subida por: Anónimo

Discos en los que aparece este acorde: 13

El acorde de Trailerpark de Blur es una versión de la canción original realizada por colaboradores/usuarios de Coveralia.

¿Has encontrado algún error en esta página? Envíanos tu corrección del acorde