música
Buscador

Acorde de Too Much Heaven - Bee Gees

Letra de Too Much Heaven



Tune down 1/2 step Eb Ab Db Gb Bb Eb



INTRO: A7sus4

Eb |-----------|.-----------------|.---------------|-------.-----------|

Bb |-----------|7-----------------|7---------------|-------7-----------|

Gb |--------7h9|--7-7----------7h9|--7---7---9-----|---7h9---7-7-------|

Db |-----------|------------------|--------------7-|-------------------|

Ab |-----------|------------------|----------------|-------------------|

Eb |-----------|------------------|----------------|-------------------|



A7sus4

|-------.-----------|-----------------9h10-9--12h14-12--|------0---------|

|-------7-----------|7h8-7--10h12-10--------------------|------3---------|

|---7h9---7---7---9-|-----------------------------------|------0---------|

|-------------------|-----------------------------------|------2---------|

|-------------------|-----------------------------------|------0---------|

|-------------------|-----------------------------------|----------------|



CHORUS:

DMaj7 F#m7

Nobody gets too much heaven no more

G D A7sus4

It's much harder to come by I'm waiting in a line.

DMaj7 F#m7

Nobody gets too much love anymore

G D A7sus4

It's as high as a mountain and harder to climb.



VERSE:

A7sus4

Oooh You and me girl got a lot of love in store

and it flows through you and it flows through me

and I love you so much more.

DMaj7

And my love I can see we are forever

G

everthing we are will never die

G A/G F#m7 Bm w/RIFF A

Love is such a beautiful thing



RIFF A: 1 1/2

|-------.--.---------.-----|

|------10-12-12b-12-10-12--|

|--9h11--------------------|

|--------------------------|

|--------------------------|

|--------------------------|

1 & ah 2 & 3 & 4 &



A7sus4

Oh you make my world a summer day

Are you just a dream to fade away?



CHORUS:

http://www.coveralia.com/acordes/too-much-heaven-bee-gees.php

DMaj7 F#m7

Nobody gets too much heaven no more

G D A7sus4

It's much harder to come by I'm waiting in a line.

DMaj7 F#m7

Nobody gets too much love anymore

G D A7sus4

It's as high as a mountain and harder to climb.



A7sus4

Ah you and me girl got a highway to the sky

we can turn around from the night or day

and the tears will have to wait



Your my love I can a new tomorrow

everthing we are will never die

G A/G F#m7 Bm w/RIFF A

Love is such a beautiful thing

A7sus4

When you walk to me the night above

meant for all to see our precious love



CHORUS:

DMaj7 F#m7

Nobody gets too much heaven no more

G D A7sus4

It's much harder to come by I'm waiting in a line.

DMaj7 F#m7

Nobody gets too much love anymore

G D A7sus4

It's as high as a mountain and harder to climb.

DMaj7 G

Ahhhhhh AHHHHHHHHH!



G A/G F#m7 Bm

Love is such a beautiful thing

A7sus4

Oh you make my world a summer day

C7sus4

Are you just a dream to faaaaaaaaade awaaaaaaaay?





CHORUS: (3 times and fade)

F Am7

Nobody gets too much heaven no more

Bb F C7sus4

It's much harder to come by I'm waiting in a line.

F Am7

Nobody gets too much love anymore

Bb F C7sus4

It's as wide as a river and harder to ride.







Letra subida por: Anónimo

¿Has encontrado algún error en esta página? Envíanos tu corrección del acorde