música
Buscador

Acorde de Too Late - 5 Seconds Of Summer

Letra de Too Late



Capo 2 fret



Intro:



---0--0---------------------------------|

----------3--3--2--0--0--0--2--2--------|

----------------------------------------|

----------------------------------------|

----------------------------------------|

----------------------------------------|



or you can also play:



A, Asus4, A, A5, A







A F#m

Ever since the day that we met

E A

I couldn't get you out of my head

F#m E

There was always something about you

A F#m

Every chance that I seem to get

E A

Finds a way to end in regret

F#m E

There was always something about you



F#m E A D

Jealousy keeps containing me

F#m E

In time you'll see

A D

Just what we could be



[Chorus:]

A

But I'm always too late

F#m

I'm always too late

E D

I see you but I always hesitate

A

'Cause I'm always too late

F#m

Don't wanna be too late

E D

To have you by my side and I can't wait

'Cause never is too late



Intro again



guitar solo (Michael)



--5-------5-------5-------5-------5-----|

--------5-------5-------5-------5---5---|

----------------------------------------|

----------------------------------------|

----------------------------------------|

----------------------------------------|



--4--------4-------4-------4------4-----|

---------5-------5-------5------5---5---|

----------------------------------------|

----------------------------------------|

----------------------------------------|

----------------------------------------|

A F#m

Every time I see you with him

E A

I'm tearing down the walls in my head

F#m E

http://www.coveralia.com/acordes/too-late-5-seconds-of-summer.php

I can't hold back any longer



F#m E A D

Jealousy keeps containing me

F#m E

In time you'll see

A D

Just what we could be



[Chorus:]

A

But I'm always too late

F#m

I'm always too late

E D

I see you but I always hesitate

A

'Cause I'm always too late

F#m

Don't wanna be too late

E D

To have you by my side and I can't wait

'Cause never is too late



E F#m

Wanted to tell you

A D A

What I feel inside

E F#m

Don't wanna hurt you

A D A

I'll make you feel alright

E F#m

Wanted to tell you

A D A

What I feel inside

E F#m

Don't wanna hurt you

A D A

I'll make you feel alright



[Chorus:]

A

But I'm always too late

F#m

I'm always too late

E D

I see you but I always hesitate

A

'Cause I'm always too late

F#m

Don't wanna be too late

E D

To have you by my side and I can't wait



A

'Cause I'm always too late

(I'm always too late)

F#m

I'm always too late

(Waiting for you babe)

E D

I see you but I always hesitate



A

'Cause I'm always too late

(I'm always too late)

F#m

Don't wanna be too late

(Waiting for you babe)

E D

To see you by my side and I can't wait

'Cause never is too late

Letra subida por: Anónimo

Discos en los que aparece este acorde: Unplugged (Ep)

El acorde de Too Late de 5 Seconds Of Summer es una versión de la canción original realizada por colaboradores/usuarios de Coveralia.

¿Has encontrado algún error en esta página? Envíanos tu corrección del acorde