música
Buscador

Acorde de Todo Eso - Callejeros

Letra de Todo Eso

INTRO---F#-Fm-D#m-F#-G#



C# G#

El gordo Porcel, Alberto Olmedo, Diego Armando Maradona

F# C#

Luca Prodan, Carlos Gardel.

C#

Las madres y las abuelas

G#

que no olvidan ni perdonan

F# G#

Ante el indulto y la obedencia de una ley

C#

Mis hermanos y mi vieja, mi viejo

G#

Mi tapiales o Parque Patricios

F# C#

Y algun vicio sin descartar

C#

Las calles y los edificios

G#

De mi Buenos Aires prendido

F#

fuego a la noche cuando ruego

G#

por verte regresar



C# F#

Todo eso y tus besos

Bbm F#

Son la mueca que me va a quedar

G# C#

cuando me vengan a buscar

C# F#

Todo eso es el peso

Bbm F# Fm

Que tendra mi alma cuando el diablo

F# C#

me reserve algun lugar



G# F#m Fm

Nooooooo y mis problemas

D#m F#m

No seran problemas

F# G#

Nunca Mas



C#

Y un milagro un millon de sueños

G#

El intento por entretenerte

F#

y la suerte de ser testigo

C#

y culpable de nuestra ilusion



C#

Obsesión por la letra y la rima

G#

Mas presion por trepar a la cima

F#

Y una rutina que me lastima

G#

http://www.coveralia.com/acordes/todo-eso-callejeros.php

Si no estas vos





C# F#

Todo eso y tus besos

Bbm F#

Son la mueca que me va a quedar

G# C#

cuando me vengan a buscar

C# F#

Todo eso es el peso

Bbm F# Fm

Que tendra mi alma cuando el diablo

F# C#

me reserve algun lugar



G#m F#m Fm

no oo oo



solo



1-|---------------------------------------------------|

2-|---------------------------------------------------|

3-|--------------8--8----6---6h8--6-------------------|

4-|----6---6---6---6----------------------------------|

5-|--4---4---------------------------6--6h8--6--4--4--|

6-|---------------------------------------------------|



1-|-------------------------------------------------------|

2-|-------------------------------------------------------|

3-|-------------------------------------------------------|

4-|-------3--6---------3--6-------------------------------|

5-|--4--6------4--4--6--------------3--6---------3--6---4-|

6-|-------------------------4--4--6------4--4--6----------|



1-|------------------------------------------------------------|

2-|----------------11--9------11--9-------9--9h11--9-----------|

3-|----------8--10------11--10-----11--10------------11--10----|

4-|----8--10------------------------------------------------11-|

5-|--11--------------------------------------------------------|

6-|------------------------------------------------------------|







estribillo (bis)

C# F#

Todo eso y tus besos

Bbm F#

Son la mueca que me va a quedar

G# C#

cuando me vengan a buscar

C# F#

Todo eso es el peso

Bbm F# Fm

Que tendra mi alma cuando el diablo

F# C#

me reserve algun lugar



G#m F#m Fm

no oo oo





Letra subida por: Anónimo

Discos en los que aparece este acorde: Rocanroles Sin Destino

El acorde de Todo Eso de Callejeros es una versión de la canción original realizada por colaboradores/usuarios de Coveralia.

¿Has encontrado algún error en esta página? Envíanos tu corrección del acorde