música
Buscador

Acorde de Todo - Alejandra Guzman

Letra de Todo

INTRO con golpes constantes en los acordes hacia arriba y abajo

C#m

e -------------------------------4-4-4-4-4-4-4---6-6-6-6-6-6-6--

B -------------------------------5-5-5-5-5-4-5---5-5-5-5-5-4-5--

G -------------------------------6-6-6-6-6-6-6---6-6-6-6-6-6-6--

D ------------4-h-6-p-4-----4----6-6-6-6-6-6-6---6-6-6-6-6-6-6--

A --4--4-h-7-------------7-----4--------------------------------

E --------------------------------------------------------------

B A G#7sus4 G#7

e --2-2-2-2-2-2-2---2-2-2-2-2-2-2---0-0-0-0-0-0-0---------4--------4--|

B --4-4-4-4-4-2-4---4-4-4-4-4-2-4---2-2-2-2-2-0-2------4-----4--------|

G --4-4-4-4-4-4-4---4-4-4-4-4-4-4---2-2-2-2-2-2-2---6-----------5-----|

D --4-4-4-4-4-4-4---4-4-4-4-4-4-4---2-2-2-2-2-2-2---------------------|

A --------------------------------------------------------------------|

E --------------------------------------------------4-----------------|





C#m B

Siempre sólo te sientes diferente a los demás

A

y a tu modo llevas la tristeza en tu mirar

G#7sus4 G#7

no lo puedes evitar se te nota.





C#m B

Ven conmigo quien mejor que yo te va a cuidar

A

te lo pido confía en mí y déjate llevar

G#7sus4 G#7

no te voy a abandonar y en mis brazos.





E B

To-o-odo-o-o yo te voy a dar

F#° C#m

no vas a imaginar

A B

como soñar despierto,

E B

poco a poco olvidarás

F#° C#m

tus penas al amar

A B7 C#m

te voy a dar, todo.

C#m

e --------------------------------4--|

B --------------------------------5--|

G --------------------------------6--|

D ------------4-h-6-p-4-----4-----6--|

A --4--4-h-7-------------7-----4-----|

E -----------------------------------|



C#m B

Tu pasado tienes que arrancarlo de raiz

A

y a mi lado si quieres intentamos revivir

G#7sus4 G#7

y sábras lo que es sentir de nuevo.

http://www.coveralia.com/acordes/todo-alejandra-guzman.php





E B

To-o-odo-o-o yo te voy a dar

F#° C#m

no vas a imaginar

A B

como soñar despierto,

E B

poco a poco olvidarás

F#° C#m

tus penas al amar

A B7 C#m

te voy a dar, todo.





A B

Deja todo y corre junto a mí

C#m

no te tienes que resistir no te engañes

B

si dejas todo atrás

A G#7

te juro que jamás te voy a lastimar.



REQUINTO

C#m B

e ---------9---------9--14-r-12--9-v-------------------------------------------

B -12-b-14---12-b-14-----------------12-b-14-14-14-r-12-9-9v-12-h-9-s-7--------

G ----------------------------------------------------------------------9-9-8--

D -----------------------------------------------------------------------------

A -----------------------------------------------------------------------------

E -----------------------------------------------------------------------------

A G#7

e --------------------------------------------------------------------------------|

B -------------------------------------------------------------9---------9-9-9-9--|

G ---9-p-8-9-p-8-------------------9-11-11-b-12-r-11-9-11-b-12---11-b-12----------|

D ---------------9-9-h-11---9-h-11------------------------------------------------|

A --------------------------------------------------------------------------------|

E --------------------------------------------------------------------------------|





E B

To-o-odo-o-o yo te voy a dar

F#° C#m

no vas a imaginar

A B

como soñar despierto,

E B

poco a poco olvidarás

F#° C#m

tus penas al amar

A B7 C#m

te voy a dar, todo.





FINAL C#m B A G#7 C#m (ARPEGIADO)

Letra subida por: Anónimo

El acorde de Todo de Alejandra Guzman es una versión de la canción original realizada por colaboradores/usuarios de Coveralia.

¿Has encontrado algún error en esta página? Envíanos tu corrección del acorde