música
Buscador

Acorde de Toca Para Mi - Alejandro Sanz

Letra de Toca Para Mi



Intro: C F Bb C F Bb



e--------------8----5--------------------|

B---5---6---8----8-----8---6---5------5--|

G---------------------------------7------|

D----------------------------------------|

A----------------------------------------|

E----------------------------------------|





e------------------8-----5---------------------|

B---5--6--5--6--8-----8-----8---6---5----------|

G--------------------------------------7--5----|

D----------------------------------------------|

A----------------------------------------------|

E----------------------------------------------|





C G Am Em F G

Como cada tarde estaba, en el parque para tocar su viejo y cansado instrumento.



C G Am Em F

En el mismo banco sentado, una manta en el suelo a su lado, dispuesto a dar el lado

G

bueno y aunque ya se venga menos me regala una balada solo por una mirada



C G Am Em F

De sus anios de experiencia y de anecdotas me cuenta yo finjo creerle asi me gusta



G

verlo feliz contando aventuras y creyendo ser un piolin



C G Am Em

toca para mi, yo te quiero oir.



F C F G

quiero forma parte de tu locura pondremos nuestras almas de partitura





C G Am Em

toca para mi, yo te quiero oir.



F C F G

y que el ultimo latido de tu corazon, sea la rosa que brota de la ultima nota.





e--------------8----5--------------------|

B---5---6---8----8-----8---6---5------5--|

G---------------------------------7------|

D----------------------------------------|

A----------------------------------------|

E----------------------------------------|



http://www.coveralia.com/acordes/toca-para-mi-alejandro-sanz.php



e------------------8-----5---------------------|

B---5--6--5--6--8-----8-----8---6---5----------|

G--------------------------------------7--5----|

D----------------------------------------------|

A----------------------------------------------|

E----------------------------------------------|





C G Am Em F

Hay gente que rie al verle con su pajarita verde sus pantalones ya roidos y unas



G

flores que ha cojido adornando una camisa que ha cosido muy deprisa.



C G Am Em F

El loco maestro toca con una dulcura loca y se posa una paloma en sus sapatos de goma



G

nadie rie nadie habla los que de ti se burlaban.



C G Am Em F

Se va recostando y habla de lo dura que es la tabla que ha dejado de finjir no quiero



G

verle sufrir contando aventuras y creyendose un piolin



C G Am Em

toca para mi, yo te quiero oir



F C F G

quiero forma parte de tu locura pondremos nuestras almas de partitura



C G Am Em

toca para mi, yo te quiero oir



F C F G

y que el ultimo latido de tu corazon sea la rosa que brota de la ultima nota.



C G Am Em F C F G

toca para mi, yo te quiero oir



C G Am Em

toca para mi, yo te quiero oir



F C F G

y que el ultimo latido de tu corazon sea la rosa que brota de la ultima nota.





Ending: C F Bb, C F Bb





Letra subida por: Anónimo

El acorde de Toca Para Mi de Alejandro Sanz es una versión de la canción original realizada por colaboradores/usuarios de Coveralia.

¿Has encontrado algún error en esta página? Envíanos tu corrección del acorde