música
Buscador

Acorde de Tiempo En Una Botella - Ricardo Arjona

Letra de Tiempo En Una Botella

-------------------------------------------------------|

ACORDES |

Dm A+5 Dm7 Dm6 Gm A7 D |

E - 1 E - 1 E - 1 E - 1 E - 3 E - 0 E - 2 |

B - 3 B - 2 B - 1 B - 0 B - 3 B - 2 B - 3 |

G - 2 G - 2 G - 2 G - 2 G - 3 G - 0 G - 3 |

D - 3 D - 3 D - 0 D - 0 D - 5 D - 2 D - 4 |

A - 0 A - 0 A - 0 A - 0 A - 5 A - 0 A - 0 |

E - X E - X E - X E - X E - 3 E - 0 E - X |

|

D/C# Bm Bm/A G D/F# Em Dm2 |

E - 2 E - 2 E - 2 E - 3 E - X E - 0 E - 0 |

B - 3 B - 3 B - 3 B - 3 B - 3 B - 0 B - 6 |

G - 2 G - 4 G - 4 G - 0 G - 2 G - 0 G - 7 |

D - 0 D - 4 D - 4 D - 0 D - 0 D - 2 D - 0 |

A - 4 A - 2 A - 0 A - 2 A - X A - 2 A - X |

E - X E - 2 E - X E - 3 E - 2 E - 0 E - X |

-------------------------------------------------------|

INTRO

Dm A+5 Dm7 Dm6

E-----10---10-------9---9-------8---8-------7---7----

B------6----6-------6---6-------6---6-------6---6----

G---7----7----7---7---7---7---7---7---7---7---7---7--

D-0-------------0-----------0-----------0------------

A----------------------------------------------------

E----------------------------------------------------



Dm A+5 Dm7 Dm6

E-----10---10-------9---9-------8---8-------7---7----

B------6----6-------6---6-------6---6-------6---6----

G---7----7----7---7---7---7---7---7---7---7---7---7--

D-0-------------0-----------0-----------0------------

A----------------------------------------------------

E----------------------------------------------------



Gm A7

E--3-------3--------------0--3--1--0--|

B-----5--6---6--5---2--3-----------2--|

G--3------------3------------3--2--0--|

D----------------------------------2--|

A---------------5---0--2--4--------0--|

E--3----------------------------------|





Dm A+5 Dm7 Dm6

Si pudiera detener el tiempo

Gm A7

y echarle un vistazo al pasado,

Dm A+5 Dm7 Dm6

si el ayer fuera el hoy o el hoy el ayer

Gm A7

si pudiera volverte a ver;

Dm A+5 Dm7 Dm6

Si pudiera una botella guardar tiempos

Gm A7

y acudir a ellos an la tristeza,

Dm A+5 Dm7 Dm6

buscaría en cada uno de los días del ayer

Gm A7

procurando volverte a ver . . .





D D/C# Bm

Y es que estoy aqui buscando en el ayer

http://www.coveralia.com/acordes/tiempo-en-una-botella-ricardo-arjona.php

Bm/A G D/F# Em A7

lo que no encuentro hoy,

D D/C# Bm

el tiempo en una botella

Bm/A G D/F# Em A7

para acudir a ella cuando quiera . . .







PUENTE

Dm A+5 Dm7 Dm6

E-----10---10-------9---9-------8---8-------7---7----

B------6----6-------6---6-------6---6-------6---6----

G---7----7----7---7---7---7---7---7---7---7---7---7--

D-0-------------0-----------0-----------0------------

A----------------------------------------------------

E----------------------------------------------------



Dm A+5 Dm7 Dm6

E-----10---10-------9---9-------8---8-------7---7----

B------6----6-------6---6-------6---6-------6---6----

G---7----7----7---7---7---7---7---7---7---7---7---7--

D-0-------------0-----------0-----------0------------

A----------------------------------------------------

E----------------------------------------------------



Gm A7

E--3-------3--------------0--3--1--0--|

B-----5--6---6--5---2--3-----------2--|

G--3------------3------------3--2--0--|

D----------------------------------2--|

A---------------5---0--2--4--------0--|

E--3----------------------------------|





Dm A+5 Dm7 Dm6

Buscaría en la botella tu sonrisa

Gm A7

y tu forma de andar por el mundo

Dm A+5 Dm7 Dm6

si pudiera una botella guardar tiempos de ayer

Gm A7

buscaría volverte a ver.





D D/C# Bm

Y es que estoy aqui buscando en el ayer

Bm/A G D/F# Em A7

lo que no encuentro hoy,

D D/C# Bm

el tiempo en una botella

Bm/A G D/F# Em A7

para acudir a ella cuando quiera . . .





FINAL

Dm Dm2

E -----------------------------0-------------------0--|

B --2--3--5--6-----6--------6----6-----6--------6--6--|

G -----------7--7--------7-------7--7--------7-----7--|

D -----------7--------7----------7--------7--------0--|

A --0--2--4--5-------------------5--------------------|

E ----------------------------------------------------|

Discos en los que aparece este acorde: Animal Nocturno , Solo Para Mujeres , Grandes Exitos (2014)

El acorde de Tiempo En Una Botella de Ricardo Arjona es una versión de la canción original realizada por colaboradores/usuarios de Coveralia.

¿Has encontrado algún error en esta página? Envíanos tu corrección del acorde