música
Buscador

Acorde de There Ain't Nothing Wrong With The Radio - Aaron Tippin

Letra de There Ain't Nothing Wrong With The Radio

Intro 

G G

|-----------------------------------------------------5----------5--------

|-----------------------------------------------------5----------5--------

|-----------------------------------------------------6----------6--------

|-1~2-1~2-1~2-----------1~2-1~2-1~2------------7----------7--------

|----------------4>2---------------------4>2--------7----------7--------

|--------------------5>2-0-------------------5>2----5-3-2-0---5-3-2-0-



------------------------------|

------------------------------|

------------------------------|

-12>9---------------7^^^V-----|

-----12-10--------------------|

----------12

I got stopped by a cop late last night, out of date tags and no taillights,

He said I oughta run you in but im a lettin you go because there ain't

http://www.coveralia.com/acordes/there-ain-t-nothing-wrong-with-the-radio-aaron-tippin.php

nothin wrong with your radio.



Got the best lookin gal in my hometown, I asked her last time that I took

her out, honey tell me what it is that makes you love me so, she said there

ain't nothin wrong with your radio.



I got sixteen speakers crossin my back dash, a little bobbin dog watchin

everybody pass dual attennas whippin in the wind Lord the ain't no country

station that I can't tune in, she ain't a cadillac and she ain't a rolls but

their ain't nothin wrong with the radio.



A E A E E

No she ain't a cadillac and she ain't a rolls but there ain't nothin

B B E

wrong with your radio.

Letra subida por: Anónimo

Discos en los que aparece este acorde: Ultimate , Now & Then

El acorde de There Ain't Nothing Wrong With The Radio de Aaron Tippin es una versión de la canción original realizada por colaboradores/usuarios de Coveralia.

¿Has encontrado algún error en esta página? Envíanos tu corrección del acorde