música
Buscador

Acorde de The Water - Hurts

Letra de The Water



CAPO 1



Intro: Asus2 Fmaj7b5 x2 Asus2: 002200

Fmaj7b5: 103200



Asus2 Fmaj7b5

Innocent, they swim



Asus2

I tell them 'no'



Fmaj7b5

They just dive right in



G

But do they know?







Em F

It's a long way down



G

When you're alone



Em F

And there's no air or sound



G (pause)

Down below the surface







Am G C

There's something in the water



Em F

I do not feel safe



G C

It always feels like torture



E Am

To be this close



G C

I wish that I was stronger



Em F

I'd separate the waves



G C

Not just let the water



E

Take me away







Asus2 Fmaj7b5







Asus2 Fmaj7b5

There was a time I'd dip my feet



Asus2 Fmaj7b5

And it would roll off my skin



Asus2 Fmaj7b5

Now every time I get close to the edge



Asus2 Fmaj7b5

I'm scared of falling in







http://www.coveralia.com/acordes/the-water-hurts.php

G Em F

'Cause I don't want to be stranded again



G

On my own



Em F

When the tide comes in



G (pause)

And pulls me below the surface











Am G C

There's something in the water



Em F

I do not feel safe



G C

It always feels like torture



E Am

To be this close



G C

I wish that I was stronger



Em F

I'd separate the waves



G C

Not just let the water



E

Take me away







Outro and strings:



Am G C Em F G C

E|----------------------------------------------------------------------|

B|----------------------------------------------------------------------|

G|---------------8------10~~10~~10--8--------------------------8--------|

D|-11~~~-10--11------------------------11--10-11-10-8~~10--11-----------|

A|------------------11-------------------------------------------11-11--|

E|----------------------------------------------------------------------|







E Am G C Em F

E|---------8-9-8------------------11------13~~13~~13-11-----------------|

B|----9-10-------11~~11~~11/13-14------------------------14--13-14-13-11|

G|-8----------------------------------13--------------------------------|

D|----------------------------------------------------------------------|

A|----------------------------------------------------------------------|

E|----------------------------------------------------------------------|







G C E

E|--------11----13~~13//17~~-----|

B|~~13-14------------------------|

G|-----------13------------------|

D|-------------------------------|

A|-------------------------------|

E|-------------------------------|



Outro: Asus2 Fmaj7b5 x2







Letra subida por: Anónimo

Discos en los que aparece este acorde: Happiness , Happiness (Deluxe Edition)

El acorde de The Water de Hurts es una versión de la canción original realizada por colaboradores/usuarios de Coveralia.

¿Has encontrado algún error en esta página? Envíanos tu corrección del acorde