música
Buscador

Acorde de The Stars Look Familiar - I Am Kloot

Letra de The Stars Look Familiar



Tuning: EADGBE



D XX0232

Dsus2 xx0230

D5 xx023x

Em 022000

A x02220

Bm x24432

Bm/F# 2x4432

F# 244322

G 355433



Intro

=====



D Dsus2 D5 Dsus2

D Dsus2 D5 Dsus2



Verse I

=======



D Dsus2 D5 Dsus2

And I dreamed of the stars so much



Em

That they seem familiar



Asus4 A Asus2 A5

Like once what was the lovers touch



Em A

Just reached back to kill ya



Verse II

========



D Dsus2 D5 Dsus2

And if you ever go a-stray



Em

And say that I knew ya



Asus4 A Asus2 A5

To-morrow's the same as yesterday



Em A

So what good will that do ya



Refrain I

=========



Bm Bm/F# Bm

To fall u-pon our-selves each night



Em

And crawl like vampires from the light



A

Later on will they all say



F# G

They never cared much anyway



Verse III

=========



D Dsus2 D5 Dsus2

I can know my-self so much



Em

That I seem familiar



Asus4 A Asus2 A5

Like what was once my lovers touch



Em A

That reached out to thrill ya



Verse IV

========



D Dsus2 D5 Dsus2

And if we ever go a-stray



Em

I will say that I knew ya



Asus4 A Asus2 A5

To-morrow's the same as yesterday



Em A

What good will that do ya



Refrain II

==========



Bm Bm/F# Bm

You're on your marks and off your face



Em

Hung out in some exotic place



http://www.coveralia.com/acordes/the-stars-look-familiar-i-am-kloot.php

A

And in your hand but out of reach



F# G

Once more we go in-to the breach







Inst

====



D Em A Em A

D Em A Em A



Over the above chords, play this TWICE



D Em

E ---------------|---------------|---------------|---------------|

B ---------------|---------------|---------------|---------------|

G ---------------|---------------|---------------|---------------|

D ---------------|---------------|---------------|---------------|

A 0--------------|----------0----|---------------|----------0----|

E ---------------|------------3-2|0-2-3-3--------|------------3-2|



A Em A

E ---------------|---------------|---------------|---------------|

B ---------------|---------------|---------------|---------------|

G ---------------|---------------|---------------|---------------|

D ---------------|---------------|---------------|---------------|

A ---------------|0---------0----|------2--5--4--|0--------------|

E 0-2-3-3--------|------------3-2|0-2-3----------|---------------|



Refrain III

===========



Bm Bm/F# Bm

We fall u-pon our-selves each night



Em

And crawl like vampires from the light



A

Later on when they all say



F# G

They never made much anyway



Verse V

=======



D Dsus2 D5 Dsus2

And I looked at the stars so much



Em

That they seem familiar



Asus4 A Asus2 A5

Like once what was the lovers touch



Em A

Just reached back to kill ya



Verse VI

========



D Dsus2 D5 Dsus2

But if you ever went a-stray



Em

And say that I knew ya



Asus4 A Asus2 A5

To-morrow's the same as yesterday



Em A

So what good will that do ya



Refrain IV

==========



Bm

You're on your marks and off your face



Em

Hung out in some exotic place



A

But out of reach within your hand



F# G

There's something you don't understand



Outro

=====



D Dsus2 D5 Dsus2

D Dsus2 D5 Dsus2

D Dsus2 D5 Dsus2

D Dsus2 D5 Dsus2

D





Letra subida por: Anónimo

Discos en los que aparece este acorde: Gods And Monsters

El acorde de The Stars Look Familiar de I Am Kloot es una versión de la canción original realizada por colaboradores/usuarios de Coveralia.

¿Has encontrado algún error en esta página? Envíanos tu corrección del acorde