música
Buscador

Acorde de The Silence - Gamma Ray

Letra de The Silence

Intro: 





G D Em Bm C G D



E ------------10---------10----------------------------------------10-----------------------

B -----10--12----12--10-----10-----12----------------------10--12------12--10---------------

G --12--------------------------12-----12-----------9--12-----------------------------------

D -----------------------------------------12---12------------------------------------------

A ------------------------------------------------------------------------------------------

E ------------------------------------------------------------------------------------------



G D Em Bm C D G



E ------------10---------10-----------------------------------------------------------------

B -----10--12----12--10-----10-----12----------------------10--12--10-----------------------

G --12--------------------------12-----12-----------9--12--------------12--11--12-----------

D -----------------------------------------12---12---------------------------------12--9----

A ---------------------------------------------------------------------------------------10-

E ------------------------------------------------------------------------------------------







G D Em C

When you're drowning, when you're freezin', when you're feeling cold

G D C G D

There's a light in the darkness as the elder always told.

G D Em C

When the winter's coming closer and the autumn's passing by,

G D C G D

Then the world will sink in silence and I think we all should try.





Am D

Oh, I wanna live my life in a fairy tale

Em D C

Where the end is always good and never sad.

G Em D C

Show me the way to another world

C D G D

Where the sun is always shining in the end.





G D Em C G D

And we fight back the tears, and we lose our fears.

C G D D7

Let the world remain in silence for a while.

G D Em Bm

Sun in our minds in a world full of ice,

C D G

Let the silence remain for a little while.





http://www.coveralia.com/acordes/the-silence-gamma-ray.php

Bm Em D G

Somebody came and slammed the door took the feelin' away from our hearts;

F# Bm A

And the horror took hold of a place in our hearts filled with love.



(Em)



Em D

What is left behind the ice, behind the make up and the lies

C Em

Tell me what goes on inside our minds.

Em D

There is a hole in our sky, getting bigger growing wide

C Em

No more answer but we hold the line - - uh, yeah - - -





Em Bm F# F#7 B

See and hear what we have done to us all,

B7 E

we wanna be free more than anything,

Em B

Do you hear what I say to you?

F# Em B

We will make it through, the sun shall shine.





Solo: 2x (Em C) 4x (Em D C B7)





C D

Hear the words we say and see the light of day

Am C D D7

We never will be free until the sun is shining for us all





Solo: G D G D G D G





G D Em Bm

Carry on, carry on and make our dreams come true

C G D D7

And for a little while we stay together.

G D Em Bm

Carry on, carry on, may all our lovin'stay

C D C G

And for a little while we stay together forever,

C G

Together, forever.





Letra subida por: Anónimo

El acorde de The Silence de Gamma Ray es una versión de la canción original realizada por colaboradores/usuarios de Coveralia.

¿Has encontrado algún error en esta página? Envíanos tu corrección del acorde