música
Buscador

Acorde de The Poison - Bullet For My Valentine

Letra de The Poison





Key: F



Tuning: Standard EADGBe



Chords used:

Dm - xx0231

Bb - x13331

F - 133211

C - x32010

A - x02220

Gm - 355333

Eb - x68886





Intro: Dm(tapping)-- x3 C



Tapping: L = left hand, R = Right Hand

e|------------------------------------|

B|------------------------------------|

G|------------------------------------|

D|---7------7------7------7------7----| x3

A|-5---12-5---13-5---12-5---13-5---15-|

E|------------------------------------|

L L R L L R L L R L L R L L R



e|------------------------------------|

B|------------------------------------|

G|--------------------5---3-----------|

D|---7------7------7----3---3-5-3-5-3-|

A|-5---12-5---13-5--------------------|

E|------------------------------------|

L L R L L R L L





Verse 1:



Growl:

Bb F A Dm

Now, is your time to die



Sing:

F Gm

We've gathered here

A Dm

to say goodbye



Growl:

Bb F A Dm

No, more, you'll cry



Sing:

F Gm

No reason left for

A Dm(tapping x2)

you to fight





Verse 2:



Growl:

Bb F A Dm

Feel pain no more



Sing:

F Gm A Dm

Emotions never felt before



Growl:

Bb F A Dm

Where, do, we go we go



Sing:

F Gm

she'll never know





Chorus 1:



Sing:

Dm Bb F

Holding on to you

Bb A

to keep from falling

Dm Bb

http://www.coveralia.com/acordes/the-poison-bullet-for-my-valentine.php

Your eyes are closing now

F Bb A

Another chapter's ending





Interlude: Dm--

e|-----------------|

B|-----------------|

G|-5---3-----------|

D|---3---3-5-3-5-3-|

A|-----------------|

E|-----------------|



Verse 3:



Growl:

Bb F

Hard, times

A Dm

we always saw



Sing:

F

There's nothing

Gm A Dm

left of you no more



Growl:

Bb F A

Fear, has, no

Dm

place, no place



Sing:

F Gm

Cover her face





(Repeat Chorus 1)





Chorus 2:

Dm Bb F

This is our last

C

goodbye (goodbye!)

Dm Bb F C Dm--

This is our time tonight





Guitar Solo: Bb--Dm--Bb--C x2





Bridge:



Growl:

Dm-- x4

Holding on to you!

Dm--Eb--F--Eb x2 Dm(tapping intro)

Cover up her face!

Dm Bb F

Holding on to you

Bb A

To keep from falling!





(Repeat Chorus 1)





Chorus 3:

Dm Bb F

This is our last

C

goodbye (goodbye!)

Dm Bb F A

This is our time tonight

(goodbye!)





Outro: Dm--Bb--F--C--Dm--Bb--



F C Dm--Bb--F--C--Dm--Bb--F--C--Dm

This is our last goodbye!





Letra subida por: Anónimo

Discos en los que aparece este acorde: The Poison , The Poison Live At Brixton (Dvd)

El acorde de The Poison de Bullet For My Valentine es una versión de la canción original realizada por colaboradores/usuarios de Coveralia.

¿Has encontrado algún error en esta página? Envíanos tu corrección del acorde