música
Buscador

Acorde de The One - Shakira

Letra de The One

 (Intro) 

e-------------------------------------------------------------------------------

B-------------------------------------------------------------------------------

G------------------------------------------------------------------------------

D--------------6----6-----6---------3-----2---------------------------------

A--------6/8----7----6----5----3/4---------3------------------------------

E------------------------------------------4/3--------------------------------



e-------------------------------------------------------------------------------

B-------------------------------------------------------------------------------

G------------------------------------------------------------------------------

D--------------6----6-----6---------3-----2---------------------------------

A--------6/8----7----6----5----3/4---------3------------------------------

E------------------------------------------4/3--------------------------------



e-------------------------------------------------------------------------------

B-------------------------------------------------------------------------------

G------------------------------------------------------------------------------- (segunda parte)

D-----------6---------8-----------10-----------3-------5--------------------

A------6/8-----8/10------10/11------6----4-----3------------------------

E-------------------------------------------------------------------------------





So I find a reason to shave my legs



Each single morning



So I count on someone on Friday nights



To take me dancing again



To church on Sundays

Bbm D#

To plant more trees

Bbm D#

And someday think of kids

Bbm D#

Or maybe just save a little money



G# D#/G F#m

You're the one I need

C#

The way back home is always long

C#m

But if youre close to me I'm holding on

G# D#/G F#m

You're the one I need

C#

My real life has just begun





C#m

Cause there's nothing like your smile made of sun



In the world full of strangers

http://www.coveralia.com/acordes/the-one-shakira.php



You're the one I know

(Solo)



So I learned to cook and finally lose



My kitchen phobia



And so I got the arms to cuddle in



When there's a ghost or a muse



That brings insomnia





To buy more thongs



To write more happy songs



It always takes a little help from someone



Chorus 2X

(G# B C# / G# B C# D#)



G# D#/G F#m

You're the one I need

C#

You're the one I need

C# G#

Youre my (???) real life has just begun



D#/G F#m

You're the one I need

C#

You're the one I need

C#m

Nothing like your smile made of sun

G# D# G F#m

Nothing like your love

C# C#m

Nothing like your love



Nothing like your love



(Solo)



e--------------------------------------------------------------------------------------------------------

B---9/11---9---9-------------------------------------------------------------------------------------

G--------------8-----8----8---10---------------------------------------------------------------------

D-------------------------------------8/10--10--10---8---6---8/10----10/8----------------------

A-------------------------------------------------------------------------------------11---8-----------

E--------------------------------------------------------------------------------------------------------



Letra subida por: Anónimo

El acorde de The One de Shakira es una versión de la canción original realizada por colaboradores/usuarios de Coveralia.

¿Has encontrado algún error en esta página? Envíanos tu corrección del acorde