música
Buscador

Acorde de The Love Thieves - Depeche Mode

Letra de The Love Thieves

Intro:				    Solo: 

E|-------------------1-----0--------|-------------------------------------------------

B|---1-----3---1---------------1----|-------------------------------------------------

G|-2-----2---2---2-2-----2---2---2--|-/6--6-6-6-5h6-5h6--6-6-6-5h6-5-5--4-4-4-3h4-3h4-

D|----------------------------------|-------------------------------------------------

A|----------------------------------|-------------------------------------------------

E|----------------------------------|-------------------------------------------------



E|------------------------------------------------------------------------------------

B|------------------------------------------------------------------------------------

G|-4-4-4-3h4-3-3--3-3-3-1-3-1-3--3-3-3-1-3-1-1----------------------------------------

D|---------------------------------------------3-3-3-1-3-1-3--3-3-3-1-3-1-------------

A|------------------------------------------------------------------------------------

E|------------------------------------------------------------------------------------







{Intro:} Dm7 Bb7M Am



Bb7M

Oh the tears that you weep

Bb7M(9)

For the poor tortured souls

F/A

Who fall at your feet

G#6

With their love begging bowls

Dm7

All the clerks and the tailors

C

The sharks and the sailors

Bb

All good at their trades

G7

But they'll always be failures



Alms for the poor

http://www.coveralia.com/acordes/the-love-thieves-depeche-mode.php

For the wretched disciples

And the love that they swore

With their hearts on the bible

Beseeching the honour

To sit at your table

And feast on your holiness

As long as they're able



Bb6

Love needs its martyrs



Needs its sacrifices

F/C

They live for your beauty



And pay for their vices

Bb7M

Love will be the death of



My lonely soul brothers

F

But their spirit shall live on in



The hearts of all lovers



You're holding court

With your lips and your smile

Your body's a halo

Their minds are on trial

Sure as Adam is eve

Sure as Jonah turned whaler

They're crooked love thieves

And you are their jailor





Letra subida por: Anónimo

Discos en los que aparece este acorde: Ultra

El acorde de The Love Thieves de Depeche Mode es una versión de la canción original realizada por colaboradores/usuarios de Coveralia.

¿Has encontrado algún error en esta página? Envíanos tu corrección del acorde