música
Buscador

Acorde de The Hardest Part - Coldplay

Letra de The Hardest Part

 (Intro 1) 

e|-----3-------3-------3-------3-------3-------3-------3-------3---|

B|---4---4---4---4---3---3---3---3---6---6---6---6---6---6---6---6-|

G|-3-------3-------3-------3-------3-------3-------3-------3-------|

D|-----------------------------------------------------------------|

A|-----------------------------------------------------------------|

E|-----------------------------------------------------------------|



(Intro 2)

e|-----3-------3-------3-------3-------3-------3-------3-------3---|

B|---4---4---4---4---4---4---4---4---6---6---6---6---6---6---6---6-|

G|-3-------3-------3-------3-------3-------3-------3-------3-------|

D|-----------------------------------------------------------------|

A|-----------------------------------------------------------------|

E|-----------------------------------------------------------------|





Gm D#

And the hardest part

A# F/A

Was letting go not taking part

Gm D# A# F/A

Was the hardest part



Gm D#

And the strangest thing

A# F/A

was waiting for that bell to ring

Gm D# A# F/A

It was the strangest start



D# A# F/A

I could feel it go down

D# A# F/A

It is sweet I could taste in my mouth

D# A# F/A

Silver lining the clouds



Gm F D# Gm Cm

Oh and I...

Cm

I wish that I could work it out







ocultar esta pestaña (Solo) Gm D# A# F/A (2x)

e|---------------------------------------------------------------------------------|

B|------------------3---------3--------------------------------3---------3---------|

G|------------3--5------3--5------3--2h3p2~---3--2--0----3--5------3--5------3--2~-|

D|-5--5-5-5------------------------------------------------------------------------|

A|---------------------------------------------------------------------------------|

E|---------------------------------------------------------------------------------|







Gm D#

And the hardest part

A# F/A

Was letting go not taking part

Gm D# A# F/A

You really broke my heart



Gm D#

And I tried to sing

A# F/A

But I couldn't think of anything

Gm D# A# F/A

That was the hardest part



http://www.coveralia.com/acordes/the-hardest-part-coldplay.php

D# A# F/A

I could feel it go down

D# A# F/A

You left the sweetest taste in my mouth

D# A# F/A

Your silver lining the clouds



Gm F D# Gm Cm

Oh and I...

Gm F D# Gm F

Oh and I...



I wonder what it's all about





(Intro 1) D# Gm Cm Cm (2x)







I wonder what it's all about







ocultar esta pestaña (Riff 1) D# Gm Cm Cm

e|----------------------------------------------------------------------|

B|-4-4-4-4-4-4-6-4-3-3-3------------------------------------------------|

G|----------------------------------------------------------------------|

D|-----------------------5--5/10-10-10-10-10-10-10-10-10-10-10-10-10-10-|

A|----------------------------------------------------------------------|

E|----------------------------------------------------------------------|



(Riff 2) D# D# F F

e|----------------------------------------------------------------------|

B|-4-4-4-4-4-4-4-4-4-4-4-4-4-4-4-4-6-6-6-6-6-6-6-6-6-6-6-6-6-6-6-6------|

G|----------------------------------------------------------------------|

D|----------------------------------------------------------------------|

A|----------------------------------------------------------------------|

E|----------------------------------------------------------------------|







D# Gm Cm

Everything I know is wrong

D# Gm Cm

Everything I do just comes undone

D# Gm Cm

And everything is torn apart



D#

Oh and it's the hardest part

F

That's the hardest part

D#

Yeah that's the hardest part

F

That's the hardest part





ocultar esta pestaña (Fica em D# Gm Cm Cm até o final...)

e|----------------------------------------------------|

B|------------------------------------15-15---13-13---|

G|---12--14-15--15---14--15-17--12--------------------|

D|----------------------------------------------------|

A|----------------------------------------------------|

E|----------------------------------------------------|





Letra subida por: Anónimo

El acorde de The Hardest Part de Coldplay es una versión de la canción original realizada por colaboradores/usuarios de Coveralia.

¿Has encontrado algún error en esta página? Envíanos tu corrección del acorde