música
Buscador

Acorde de The Final Countdown - Europe

Letra de The Final Countdown

intro: 

F#m / D / Bm / E Fm

F#m / D / Bm / E Fm

F#m / D / Bm / E Fm

F#m / D / Bm / E Fm

F#m G#/E / A D / C#





verse:

F#m

We're leaving together,

Bm

But still it's farewell

F#m

And maybe we'll come back,

F#m G#/E A

To earth, who can tell?

D E

I guess there is no one to blame

A G#/E F#m E D

We're leaving ground (leaving ground)

C# EE EE E

Will things ever be the same again?



F#m D Bm E Fm

It's the final countdown...

F#m D Bm E Fm

the final countdown... Ohhh,



F#m

we're heading for Venus

F#m Bm

and still we stand tall

F#m

Cause maybe they've seen us

F#m G#/E A

and welcome us all

D E

With so many light years to go

A G#/E F#m E D

and things to be found (to be found)

C#m EE EE E

I'm sure that we'll all miss her so.



F#m D Bm E Fm

It's the final countdown...

F#m D Bm E Fm

the final countdown...

F#m G#/E A D C# F#m

the final countdown... Ohhh!!!



SOLO:



Bm A D

||-----------------------------------------------------------------------------

http://www.coveralia.com/acordes/the-final-countdown-europe.php

||0h3h7p0h3h7p0h3h7p0h3h7p0h3h7p0h2h5h8p2h5h8p2h5h8p2h5h8p2h5h8p2/3h7h10p3h7h10

||.----------------------------------------------------------------------------

||.----------------------------------------------------------------------------

||-----------------------------------------------------------------------------

||-----------------------------------------------------------------------------

t t t t t t t t t t t t

___

|1.

G Em | A

-------------------------------------------------------------------------|----

p3h7h10p3h7h10p3h7h10-8-8------------------------------------------------|----

--------------------------12h14h16p14-1211h12p11--------12-12-12-11-9---|----

-------------------------------------------------14p12h14-------------12-|-12-

-------------------------------------------------------------------------|----

-------------------------------------------------------------------------|----

t t t

___

|2.

Bm F# | A Bm

----------------------------------------------------------||----------------

------10b12-10b12r10--------------------------------------||10b12r10--------

--------------------9-11--9-11-12p11p9--11p9p7--9p7p6-7-9.||--------7-9-11_-

11-9----------------------------------12------11-----9---.||----------------

----12----------------------------------------------------||----------------

----------------------------------------------------------||----------------





C#

----------|

----12----|

-11b13r11-|

----------|

----------|

----------|





F#m / D / Bm / E Fm

F#m / D / Bm / E Fm

F#m G#/E A D C#

The final countdown... oh-oh





F#m / D / Bm / E Fm F#m / D / Bm / E Fm

it's the final countdown... (the final countdown)

F#m G#/E A D C#

The final countdown (the final countdown), oh

F#m D Bm E Fm

it's the final countdown, we're leaving together

F#m D Bm E Fm

(the final countdown) we'll all miss her so

F#m G#/E A D C#

it's the final countdown (the final countdown, ohh)

F#m D Bm E Fm F#m F#m

it's the final countdown, we're leaving together, The Final Countdown!

Letra subida por: Anónimo

El acorde de The Final Countdown de Europe es una versión de la canción original realizada por colaboradores/usuarios de Coveralia.

¿Has encontrado algún error en esta página? Envíanos tu corrección del acorde