música
Buscador

Acorde de The Christmas Song - Weezer

Letra de The Christmas Song





F Dm Gm C

you told me you would be here by my side,

F Dm Gm C

warming my heart on this cold winters night.

Dm C Bflat C F Bflat F

here i sit waiting beside the tree all by myself.





section 2

---------



F Dm Gm C

you told me you would bring presents and treats,

F Dm Gm C

cheering my spirits with homemade sweet meats.

Dm C Bflat C F Bflat F

here i sit waiting beside the tree all by myself.





section 3

---------



Dm Am

oh, could ever know how much i care?

Bflat

could you ever know that out somewhere

F

there's a boy who really hurts?





section 4

---------



Am Gm Dm

since i found you

F

i found a girl

Bflat

i found a thorn

Gm

i found a queen

C

now i am warm.





solo section

------------



F Dm Gm C



e ----------13--12--10--10------10--13--12~~------

b --10--13------------------11--------------------

g ------------------------------------------------

d ------------------------------------------------

a ------------------------------------------------

e ------------------------------------------------



F Dm Gm C



http://www.coveralia.com/acordes/the-christmas-song-weezer.php

e ----------13--12--10--10------10--13--12~~------

b --10--13------------------11--------------------

g ------------------------------------------------

d ------------------------------------------------

a ------------------------------------------------

e ------------------------------------------------



Dm C Bflat C F Bflat F



e --10-----10--8-----8--6-----6--5--5--3--5--5-----------5~~--

b -----10---------8--------6-----------------------6----------

g ------------------------------------------------------------

d ------------------------------------------------------------

a ------------------------------------------------------------

e ------------------------------------------------------------





section 3

---------



Dm Am

oh, could ever know how much i care?

Bflat

could you ever know that out somewhere

F

there's a boy who really hurts?





section 4

---------



Am Gm Dm

since i found you

F

i found a girl

Bflat

i found a thorn

Gm

i found a queen

C

now i am warm.





section 2 (double with solo)

---------



F Dm Gm C

you told me you would bring presents and treats,

F Dm Gm C

cheering my spirits with homemade sweet meats.

Dm C Bflat C F Bflat F

here i sit waiting beside the tree all by myself.





outro

-----



Dm C Bflat G F

here i sit waiting beside the tree all by myself.

Letra subida por: Anónimo

Discos en los que aparece este acorde: Winter Weezerland (Ep) , Green Album (Japan Edition)

El acorde de The Christmas Song de Weezer es una versión de la canción original realizada por colaboradores/usuarios de Coveralia.

¿Has encontrado algún error en esta página? Envíanos tu corrección del acorde