música
Buscador

Acorde de The Bartender And The Thief - Stereophonics

Letra de The Bartender And The Thief





Key of F

DADGBE



G5 555xxx

F5ad12 3335xx (its supposed to be F5#11, but f5ad12 sounds better to me)

D 000232

Bb5 888xxx

G xx0033



Intro - G5



Verse 1 (chords same for all verses)



F5ad12

When you think about it

G5

Hes watching every word you say, hey, dazed

F5ad12

And when hes sussed you out



He calls her up and out she comes

D

And hustles us



bridge



Bb5 G5 Bb5 G5 Bb5 G5

Long dig-gin, gone fish-in, love drink-in



Chorus

D G

The bartender and the thief are lovers

D G

Steal what they need like sisters and brothers

D G

met in a church a night to remember

D G

Robbin the graves of bodies dismembered



Verse 2



He watched the lesbian talk

http://www.coveralia.com/acordes/the-bartender-and-the-thief-stereophonics.php

she kissed and groped but mostly talked in lust, crushed

He couldnt make the call

His eyes were gripped on licking tongues

Enoughs enough, tailed for once



Bridge



Chorus



Solo (with heavy wah)

ad lib from here if u want to!!

E-2-----------------2-----------------|------------------------------

B-3--10-10-9-7-5/7--3--10-10-9-7-5/7--|------------------------------

G-2-----------------2-----------------|------------------------------

D-0-----------------0------------------------------------------------

A-0-----------------0------------------5-5-5-8p5 5-8p5-5-5-3-5-------

D-0-----------------0------------------------------------------------



E----------------------------------------

B----------------------------------------

G----------------------7~~~~~------------ play twice

D----------------------------------------

A--5-5-5-8ph-5-8p5-5-5-------------------

-----------------------------------------



Chords over solo - | F5ad12 | F5ad12 | G5 | G5 |



Bridge



Chorus



End Chorus



Saved what they stole to meet at the altar

Place were they first set eyes on each other

Flew to the sun to start life all over

Set up a bar and robbed all the locals



D G

Do Do Do Do Do Dooooooooooo x4





Letra subida por: Anónimo

El acorde de The Bartender And The Thief de Stereophonics es una versión de la canción original realizada por colaboradores/usuarios de Coveralia.

¿Has encontrado algún error en esta página? Envíanos tu corrección del acorde