música
Buscador

Acorde de Tengo Frío - Ely Guerra

Letra de Tengo Frío

INTRO:E  A G,  E  A G 

E A G, E A G



El intro es en arpegio y ya dependiendo del gusto:

rasgueado, arpegiado o combinado.



|E A G E A G |

E |--------------------------------|

B |--------------------------------|

G:|---0---------------0------------|:

D |--2-------0---0---2-------0---0-|

A |-2-------4---2---2-------4---2--|

E |0-------5---3---0-------5---3---|

^ ^ ^ ^ ^ ^ ^ ^ ^ ^ ^ ^ ^ ^ ^ ^

1 2 3 4 1 2 3 4 1 2 3 4 1 2 3 4







verso 1

E A G E A G

Es que tengo frio a medio día

E A G E A G

es que da miedo es que lastima

E A G E A G

si tengo miedo y si llevo alguna herida

E A G E A G

la misma que me lleva a ti





verso2

E A G E A G

Y tomo cuenta de los días

E A G E A G

nadie, nadie puede ver

E A G E A G

si tengo miedo si llevo alguna herida

E A G E A G

la idea es que vengas a mi





E A G E A G

http://www.coveralia.com/acordes/tengo-frio-ely-guerra.php

a-a-a-ah-ah a-a-a-ah-ah

E A G E A G

mmmmh...



ocultar esta pestaña

INTERMEDIO:



|E A G E A G |

E |--------------------------------|

B |--------------------------------|

G:|9-----7-----6---9-----7-----6---|:

D |---7---------------7----------7-|

A |--------------------------------|

E |--------------------------------|

^ ^ ^ ^ ^ ^ ^ ^ ^ ^ ^ ^ ^ ^ ^ ^

1 2 3 4 1 2 3 4 1 2 3 4 1 2 3 4







Se repite verso 1 y 2





SOLO: E A G, E A G, E A G, E A G

mh mh mh-mh





E A G E A G, E A G, E A G

la idea es que vengas a mi



E A G E A G

la idea es que vengas a mi uh-uh



E A G

lonely nigths, lonely nights hu-um

E A G

lonely nights, lonely nights ha-a

E A G

lonely nights, lonely nights mh-mh

E A G

lonely nights, lonely nights

Letra subida por: Anónimo

Discos en los que aparece este acorde: Lotofire , Teatro Metropolitan

El acorde de Tengo Frío de Ely Guerra es una versión de la canción original realizada por colaboradores/usuarios de Coveralia.

¿Has encontrado algún error en esta página? Envíanos tu corrección del acorde