música
Buscador

Acorde de Temblando - Anahi

Letra de Temblando

Tom: A


Intro:
A  D  E

(2X)

E|-------0---0--9--7--5---------------0-----------------------------|
B|--2--------------------3-------0----------------------------------|
G|-----2-------------------2-------1--------------------------------|
D|-----------------------0-------2----------------------------------|
A|--0---------------------------------------------------------------|
E|------------------------------------------------------------------|


    A        D       E    A
Temblando, y con los ojos cerrados
   D     E    F#m      C#m
El cielo esta nublado  y a lo lejos tu

 A       D        E        A
Hablando de lo que te ha pasado
  D    E
Intentando

 F#m             C#m              F#m
Ordenar palabras para no hacerme  tanto daño
D#m                  D           E
Tanto daño y yo sigo temblando-ooh

(2X)
    A  D  E


E|-------0---0--9--7--5---------------0-----------------------------|
B|--2--------------------3-------0----------------------------------|
G|-----2-------------------2-------1--------------------------------|
D|-----------------------0-------2----------------------------------|
A|--0---------------------------------------------------------------|
E|------------------------------------------------------------------|


A      D          E          E
De la mano y con mucho cuidado
   D    E        F#m           C#m
Os besasteis en silencio donde no había luz.

A                 D        E   A
Y me hace gracia tu manera de contarlo
     D    E
Como el cuenta que

F#m        C#m             F#m
Ha pensado que ha decidido que seguimos
C#m            D          E
Siendo amigos y yo estoy temblando
A           F#m           D             E
Y llorando, había jurado que nunca iba a llorar.
A          F#m    D               E
Escuchando cada palabra que no quiero escuchar.
A              F#m          D              E
Desgarrándome, suplicándote intentando hacerte recordar


E|--2---2-----2----------------|
B|--3-----3-----3--------------|
G|--2-------2------------------|
D|--0--------------------------|
A|-----------------------------|
E|-----------------------------|


Pero tú,


E|--1----1-----1---------------|
B|--3------3-----3-------------|
G|--2--------2-----------------|
D|--0--------------------------|
A|-----------------------------|
E|-----------------------------|

  
D
Solo dices, Voy a colgar

(2X) 
    A  D  E


E|-------0---0--9--7--5---------------0-----------------------------|
B|--2--------------------3-------0----------------------------------|
G|-----2-------------------2-------1--------------------------------|
D|-----------------------0-------2----------------------------------|
A|--0---------------------------------------------------------------|
E|------------------------------------------------------------------|


     A           D    E          F#m          C#m
E|-------0-----------------0------------3-------------4---------/12/-|
B|--2------2-----3-----0-----0-------3----3-------5-----5------------|
G|-----2-----2-----2-----1-------------3----3-------6-----6----------|
D|---------------0-----2---------------------------------------------|
A|--0--------------------------------4------------4------------------|
E|-------------------------------------------------------------------|


     F#m          C#m           D           E
E|-----3---------------4------------2-------------0------------------|
B|--3----3---------5-----5-------3----3--------0----0----------------|
G|----3----3---------6-----6-------2----2--------1----1--------------|
D|-------------------------------0-------------2---------------------|
A|--4--------------4-------------------------------------------------|
E|-------------------------------------------------------------------|


Discos en los que aparece este acorde: Inesperado

El acorde de Temblando de Anahi es una versión de la canción original realizada por colaboradores/usuarios de Coveralia.

¿Has encontrado algún error en esta página? Envíanos tu corrección del acorde