música
Buscador

Acorde de Tears - Dream Theater

Letra de Tears

 

Riff 1



e|--0---------------0-----------|

B|----6-------6-------6---------|

G|------0---------0-----0-------|

D|--------7---------------7-----|

A|--8---------------8-----------|

E|------------------------------|





Riff 2



A7sus4 A7 A7sus4 A7

e|--0--0--0--0--0-0--0--0--0--0--0-0--0--0--0--0--0-0--0--0--0--0--0~--|

B|--3---3-3---3-3--3-2---2-2---2-2--2-3---3-3---3-3--3-2---2-2---2-2~--|

G|--0-----0-----0----0-----0-----0----0-----0-----0----0-----0-----0~--|

D|--2-----2-----2----2-----2-----2----2-----2-----2----2-----2-----2~--|

A|--0-----0-----0----0-----0-----0----0-----0-----0----0-----0-----0~--|

E|---------------------------------------------------------------------|





Riff 3



A7sus4 A7 A7sus4 A7

e|--------------------------------0----------------------------------|

B|-------3~------------2~-----------3-----------2~-------------------|

G|-----0-----0~------0---------0------0-------0----------------------|

D|---2-------------2---------2--------------2------------------------|

A|-0-------------0---------0--------------0--------------------------|

E|-------------------------------------------------------------------|







Progression:



Riff 1 x2



Riff 1 x2 /w lyrics:

http://www.coveralia.com/acordes/tears-dream-theater.php



All of the seasons and all of the days.

All of the reasons why I felt this way.



Riff 2 and Riff 3 x1 /w lyrics:



So long, so long.



Riff 1 x2 /w lyrics:



Then lost in that feeling, I looked in your eyes.

I noticed emotion and that you had cried.



Riff 2 and Riff 3 x1 /w lyrics:



For me, I can see.



Dm C/D G A

What would touch me deeper? Tears that fall from eyes that only cry?

Dm C/D G A

Would it touch you deeper than tears that fall from eyes that know why?



Riff 1 x2

Riff 2 and Riff 3 x1



Riff 1 x2 /w lyrics:



A lifetime of questions, tears on your cheek.

I tasted the answers and my body was weak -



Riff 2 and Riff 3 x1 /w lyrics:



For you, the truth.



Dm C/D G A

What would touch me deeper? Tears that fall from eyes that only cry?

Dm C/D G A

Would it touch you deeper than tears that fall from eyes that know why?

Letra subida por: Anónimo

Discos en los que aparece este acorde: Uncovered

El acorde de Tears de Dream Theater es una versión de la canción original realizada por colaboradores/usuarios de Coveralia.

¿Has encontrado algún error en esta página? Envíanos tu corrección del acorde