música
Buscador

Acorde de Te Recuerdo Amanda - Victor Jara - Victor Jara

Letra de Te Recuerdo Amanda - Victor Jara

Intro :  



E||------7-----7-----0--|-----0-----0--|-----------------0--|-----0-----0--|

B||---------7-----5------|--------5------|-----5-----5--------|--------5-----|

G||*--0------------------|--6------------|--------4-----7-----|--6-----------|

D||*----------------------|-----------------|--5-----------------|----------------|

A||-----------------------|-----------------|----------------------|---------------|

E||-----------------------|-----------------|----------------------|---------------|







-----------0-----0--|---------------||

-----5---------------|---------------||

--------4-----7-----|--------------||

--5-----------------|---------------||

---------------------|---------------||

---------------------|---------------||



D F#m

Te recuerdo Amanda,

la calle mojada,

G

corriendo a la fábrica

C D6

donde trabajaba Manuel.



D6 F#m

La sonrisa ancha,

la lluvia en el pelo,

G

no importaba nada,

C D6

ibas a encontrarte con él,

Bm

con él, con él, con él, con él...

Bm/F# A

son cinco minutos,

A7+

la vida es eterna

A7+/E Em/G

en cinco minutos.

http://www.coveralia.com/acordes/te-recuerdo-amanda---victor-jara-victor-jara.php

A7+

Suena la sirena,

Em/G A7+

de vuelta al trabajo

Em/G F#m

y tú, caminando,

G

lo iluminas todo,

E - G6

los cinco minutos

E

te hacen florecer.



Te recuerdo Amanda,

la calle mojada,

corriendo a la fábrica

donde trabajaba Manuel.



La sonrisa ancha,

la lluvia en el pelo,

no importaba nada,

ibas a encontrarte con él,

con él, con él, con él, con él...

que partió a la sierra,

que nunca hizo daño,

que partió a la sierra

y en cinco minutos

quedó destrozado.



Suena la sirena,

de vuelta al trabajo

muchos no volvieron,

tampoco Manuel.



Te recuerdo Amanda,

la calle mojada,

corriendo a la fábrica

donde trabajaba Manuel.



Letra subida por: Anónimo

Discos en los que aparece este acorde: Antologia Musical

El acorde de Te Recuerdo Amanda - Victor Jara de Victor Jara es una versión de la canción original realizada por colaboradores/usuarios de Coveralia.

¿Has encontrado algún error en esta página? Envíanos tu corrección del acorde