música
Buscador

Acorde de Te Recordaré - Camela

Letra de Te Recordaré

* (CEJILLA I TRASTE) *



-----------|--------DO-------|------SOL------|------------Lam------------|SOL



--------0-------------5-5-5-5-5h3-3---8-7-5---5------12-----10------8---0-----e

----1-3---3-1-------------------------------8-----8------8------10---------3--B

--2------------0-0------------------------------------------------------------G

------------------------------------------------------------------------------D

------------------------------------------------------------------------------A

------------------------------------------------------------------------------E





---------------------------------------(H)

DO SOL

Por mucho que yo no quiera te recordare

Lam Mim --0----G

fuiste quien lleno mi vida quien lleno mi ser --] ----2--D

FA SOL

por una vez que decidí portarme bien

LAm MIm

y ser buena persona con una mujer--] ----------3-5--B

--0-2-4-5------G



---------------------------------------(M)

DO SOL

Lo nuestro no tiene futuro ya lo se

Lam Mim --7--------e

que lo mejor fue dejarlo se muy bien--] ----8------B

FA SOL ------9----G

que nunca encontrare alguien como tu

LAm SOL

que llene mi vida de inquietud





---------------------------------------(H)

FA SOL

Y llorare...e...e...

FA MI

y aunque ya no estas conmigo siempre te recordare







[ESTRIBILLO]

----------------------------------------(M)

MI DO

Yo siempre te recordare

SOL

como ese chico que yo quise por primera vez

LAm SOL

y en un deseo pediría que aun te tuviera mi vida

FA

ya se que lo nuestro no puede ser

MI

que de ilusiones viviré



----------------------------------------(H)

MI DO

yo siempre te recordare

SOL

como esa chica que hace años me enseño a querer

LAm

el tiempo que estuve contigo

SOL

tengo momento que no olvido

----------------------------------------(LOS 2)

FA MI

guardare siempre en mi corazón aquellos besos con amor

http://www.coveralia.com/acordes/te-recordare-camela.php









-----------|--------DO-------|------SOL------|------------Lam------------|SOL



--------0-------------5-5-5-5-5h3-3---8-7-5---5------12-----10------8---0-----e

----1-3---3-1-------------------------------8-----8------8------10---------3--B

--2------------0-0------------------------------------------------------------G

------------------------------------------------------------------------------D

------------------------------------------------------------------------------A

------------------------------------------------------------------------------E





----------------------------------------(H)

DO SOL --8-7------e

Recuerda me como algo que pudo ser--] ------8----B

----------------------------------------(M)

Lam Mim --7--------e

olvida me que ya no queda nada que hacer--] ----8------B

------7----G

----------------------------------------(H)

FA SOL

pudimos ser tu y yo un solo corazón

----------------------------------------(LOS DOS)

Lam SOL -----------0-2---G

pero nuestro destino se nos rompió--] --0--2--3--------D







---------------------------------------(H)

FA SOL

Y llorare...e...e...

FA MI

y aunque ya no estas conmigo siempre te recordare







[ESTRIBILLO](x2)

----------------------------------------(M)

MI DO

Yo siempre te recordare

SOL

como ese chico que yo quise por primera vez

LAm SOL

y en un deseo pediría que aun te tuviera mi vida

FA

ya se que lo nuestro no puede ser

MI

que de ilusiones viviré



----------------------------------------(H)

MI DO

yo siempre te recordare

SOL

como esa chica que hace años me enseño a querer

LAm

el tiempo que estuve contigo

SOL

tengo momento que no olvido

----------------------------------------(LOS 2)

FA MI

guardare siempre en mi corazón aquellos besos con amor





Letra subida por: Anónimo

Discos en los que aparece este acorde: La Magia Del Amor

El acorde de Te Recordaré de Camela es una versión de la canción original realizada por colaboradores/usuarios de Coveralia.

¿Has encontrado algún error en esta página? Envíanos tu corrección del acorde