música
Buscador

Acorde de Te Lloré Un Río - Mana

Letra de Te Lloré Un Río

Intro :



E -----4-----7------4------------4-----7-7---4-----

B ---5---5------5-----5--------5---5------------7--

G -4-------4------4----------4-------4-----4-------

D -------------------------------------------------

A -------------------------------------------------

E -------------------------------------------------





E -----4-----7------4------------4-----7-7---4-----

B ---5---5------5-----5--------5---5------------7--

G -4-------4------4----------4-------4-----4-------

D -------------------------------------------------

A -------------------------------------------------

E -------------------------------------------------





E -----4-----7------4------------4-----4-7-4-------

B ---5---5------5-----5--------5---5---5-9-5--5-7-5

G -4-------4------4----------4-------4--------4-6-4

D -------------------------------------------------

A -------------------------------------------------

E -------------------------------------------------







1. E B7

Yo aquí llorandote un río

Cm#

lanzandome al olvido

B7

que cosa más injusta amor

E B7

Fuiste matando mis pasiones

Cm#

tachando mis canciones

A

me tenías pisoteado

B7

estaba desahuciado

Cm# B7

No es justo, no bebé‚ Oh oh e oh %







PRE CORO :

A B7

Pero este mundo ya giró

Cm# B7

y ahora te toca perder Oh oh e oh





CORO: (entre paréntesis las vocales de fondo)

(aquí hay una guitarra de fondo tocando el Riff del Intro)



http://www.coveralia.com/acordes/te-llore-un-rio-mana.php

E Cm# A B7

Bebe te lloré todo un río (oh bebe bebe)

E Cm# A B7

Bebe te lloré‚ a reventar (oh bebe bebe)

E Cm# A B7

Oh no no nooo, no tienes corazón (noo)

E

No te vuelvo a amar

Cm# A

Te lloré‚ todo un río

B7 E

ahora llorame un mar







2.(Siguiendo los mismos acordes)



Ya no me busques ya es muy tarde

ya tengo otro amor

una chula sirena que nada en mi piel

Yo te perdono no hay rencores

tan sólo los dolores

Mi alma está arañada

lloré‚ el suelo mojado

No es justo no bebé‚ oh oh e oh





PRE CORO



CORO



SOLO DE GUITARRA



Cuando se toca esta parte ocurre lo mismo que enel coro, una guitarra

de fondo toca el Riff del Intro.



E Cm# A B7

Verdad que un río te lloré, verdad que no te vuelvo a amar



E Cm# A

oh no no no, no te vuelvo a amar (uh uh uh)





Repite esto 3 veces, pero la segunda vez en vez de tocar la segunda

linea toca:





E Cm# A

oh no no no, pierdete en tu mar





Y la tercera vez, en vez de la segunda linea toca



E Cm# A

llórame llórame llórame

El acorde de Te Lloré Un Río de Mana es una versión de la canción original realizada por colaboradores/usuarios de Coveralia.

¿Has encontrado algún error en esta página? Envíanos tu corrección del acorde