música
Buscador

Acorde de TATTOO - Rammstein

Letra de TATTOO

[Intro 1]



D|------------------------------------------------------|

A|------------------------------------------------------|

F|------------------------------------------------------|

C|------------------------------------------------------|

G|---4--4-4--5--5--4--4--4--4--4--4--4---5--5--4--4-----|

C|---4--4-4--5--5--4--4--4--4--4--4--4---5--5--4--4-----|

PM-| PM PM PM PM PM PM



D|------------------------------------------------------|

A|------------------------------------------------------|

F|------------------------------------------------------|

C|------------------------------------------------------|

G|---4--4-4--5--5--4--4--4--4--4--4--4---5----8--------|

C|---4--4-4--5--5--4--4--4--4--4--4--4---5----8--------|

PM-| PM PM PM PM



D|------------------------------------------------------|

A|------------------------------------------------------|

F|------------------------------------------------------|

C|------------------------------------------------------|

G|---4--4-4--5--5--4--4--4--4--4--4--4---5--5--4--4-----|

C|---4--4-4--5--5--4--4--4--4--4--4--4---5--5--4--4-----|

PM-| PM PM PM PM PM PM



D|------------------------------------------------------|

A|------------------------------------------------------|

F|------------------------------------------------------|

C|------------------------------------------------------|

G|---4--4-4--5--5--4--4--4--4--4--4--4---5----8---------|

C|---4--4-4--5--5--4--4--4--4--4--4--4---5----8---------|

PM-| PM PM PM PM



D|------------------------------------------------------|

A|------------------------------------------------------|

F|------------------------------------------------------|

C|------------------------------------------------------|

G|---4--4-4--5--5--4--4--4--4--4--4--4---5--5--4--4-----|

C|---4--4-4--5--5--4--4--4--4--4--4--4---5--5--4--4-----|

PM-| PM PM PM PM PM PM



D|------------------------------------------------------|

A|------------------------------------------------------|

F|------------------------------------------------------|

C|------------------------------------------------------|

G|---4--4-4--5--5--4--4--4--4--4--4--4---5----8--4tb6--|

C|---4--4-4--5--5--4--4--4--4--4--4--4---5----8--4tb6--|

PM-| PM PM PM PM



[Intro 2] [0:24]



D|------------------------------------------------------|

A|------------------------------------------------------|

F|------------------------------------------------------|

C|------------------------------------------------------|

G|---4--4-4--5--5--4--4--4--4--4--4--4---5--5--4--4-----|

C|---4--4-4--5--5--4--4--4--4--4--4--4---5--5--4--4-----|

PM-| PM PM PM PM PM PM



D|------------------------------------------------------|

A|------------------------------------------------------|

F|------------------------------------------------------|

C|------------------------------------------------------|

G|---4--4-4--5--5--4--4--4--4--4--4--4---5----8--------|

C|---4--4-4--5--5--4--4--4--4--4--4--4---5----8--------|

PM-| PM PM PM PM



D|------------------------------------------------------|

A|------------------------------------------------------|

F|------------------------------------------------------|

C|------------------------------------------------------|

G|---4--4-4--5--5--4--4--4--4--4--4--4---5--5--4--4-----|

C|---4--4-4--5--5--4--4--4--4--4--4--4---5--5--4--4-----|

PM-| PM PM PM PM PM PM



D|------------------------------------------------------|

A|------------------------------------------------------|

F|------------------------------------------------------|

C|------------------------------------------------------|

G|---4--4-4--5--5--4--4--4--4--4--4--4---5----8--------|

C|---4--4-4--5--5--4--4--4--4--4--4--4---5----8--------|

PM-| PM PM PM PM



[Verse 1] [0:38]

N.C.

Ich trage einen Brief an mir



D|------------------------------------------------------|

A|------------------------------------------------------|

F|------------------------------------------------------|

C|------------------------------------------------------|

G|---4--4-4--5--5--4--4--4--4--4--4--4---5--5--4--------|

C|---4--4-4--5--5--4--4--4--4--4--4--4---5--5--4--------|

PM-| PM PM PM PM PM



N.C.

Die Worte brennen auf dem Papier



D|------------------------------------------------------|

A|------------------------------------------------------|

F|------------------------------------------------------|

C|------------------------------------------------------|

G|---4--4-4--5--5--4--4--4--4--4--4--4---5--5--4--------|

C|---4--4-4--5--5--4--4--4--4--4--4--4---5--5--4--------|

PM-| PM PM PM PM PM



N.C.

Das Papier ist me-meine Haut



D|------------------------------------------------------|

A|------------------------------------------------------|

F|------------------------------------------------------|

C|------------------------------------------------------|

G|---4--4-4--5--5--4--4--4--4--4--4--4---5--5--4--------|

C|---4--4-4--5--5--4--4--4--4--4--4--4---5--5--4--------|

PM-| PM PM PM PM PM





Die Worte, Bilder, bunt und so laut

D|------------------------------------------------------|

A|------------------------------------------------------|

F|------------------------------------------------------|

C|------------------------------------------------------|

G|---4--4-4--5--5--4--4--4--4--4--4--4---5--5--4--------|

C|---4--4-4--5--5--4--4--4--4--4--4--4---5--5--4--------|

PM-| PM PM PM PM PM





D|---16----17--16-------------------|

A|----------------------------------|

F|-----------------16---------------|

C|----------------------------------|

G|-------------------------X-X-X----|

C|-------------------------X-X-X----|





[Pre-Chorus] [1:05]



Zeig mir deins, ich zeig' dir meins

D|------------------------------------------------------|

A|------------------------------------------------------|

F|------------------------------------------------------|

C|------------------------------------------------------|

G|---4--4-4--5--5--4--4--4--4--4--4--4---5--5--4--4-----|

C|---4--4-4--5--5--4--4--4--4--4--4--4---5--5--4--4-----|

PM-| PM PM PM PM PM PM



Zeig mir deins, ich zeig' dir meins

D|------------------------------------------------------|

A|------------------------------------------------------|

F|------------------------------------------------------|

C|------------------------------------------------------|

G|---4--4-4--5--5--4--4--4--4--4--4--4---5----8--------|

C|---4--4-4--5--5--4--4--4--4--4--4--4---5----8--------|

PM-| PM PM PM PM



Zeig mir deins, ich zeig' mir meins

D|------------------------------------------------------|

A|------------------------------------------------------|

F|------------------------------------------------------|

C|------------------------------------------------------|

G|---4--4-4--5--5--4--4--4--4--4--4--4---5--5--4--4-----|

C|---4--4-4--5--5--4--4--4--4--4--4--4---5--5--4--4-----|

PM-| PM PM PM PM PM PM



Zeig mir deins, ich zeig' dir meins

D|------------------------------------------------------|

A|------------------------------------------------------|

F|------------------------------------------------------|

C|------------------------------------------------------|

G|---4--4-4--5--5--4--4--4--4--4--4--4---5----8--------|

C|---4--4-4--5--5--4--4--4--4--4--4--4---5----8--------|

PM-| PM PM PM PM



[Chorus] [1:18]

Em C Am

Wenn das Blut die Tinte küsst

Em C Am

Wenn der Schmerz das Fleisch umarmt

Em C

Ich zeige meine Haut

Am

Bilder, die mir so vertraut

Em C

Aus der Nadel blaue Flut

F Em

In den Poren kocht das Blut



D|-----------------|

A|-----------------|

F|-----------------|

C|-----------------|

G|----4------------|

C|----4-----16----|

http://www.coveralia.com/acordes/tattoo-rammstein.php





[Verse 2] [1:50]

N.C.

Wer schön sein muss, der will auch leiden



D|--------------------------------------------------------|

A|--------------------------------------------------------|

F|--------------------------------------------------------|

C|--------------------------------------------------------|

G|--------------------------------------------------------|

C|---4-4-4-5--4--4-4--4--5--4-----------------------------|





N.C.

Und auch der Tod kann uns nicht scheiden



D|--------------------------------------------------------|

A|--------------------------------------------------------|

F|--------------------------------------------------------|

C|--------------------------------------------------------|

G|--------------------------------------------------------|

C|---4-4-4-5--4--4-4--4--5--4-----------------------------|





Alle Bilder auf meiner Haut

D|--------------------------------------------------------|

A|--------------------------------------------------------|

F|--------------------------------------------------------|

C|--------------------------------------------------------|

G|---4-4-4-4-5-4-4-4--4-4-4-4-5-5-4-4---------------------|

C|---4-4-4-4-5-4-4-4--4-4-4-4-5-5-4-4---------------------|

x2 PM------------------------------|





Meine Kinder so, so vertraut

D|--------------------------------------------------------|

A|--------------------------------------------------------|

F|--------------------------------------------------------|

C|--------------------------------------------------------|

G|---4-4-4-4-5-4-4-4--4-4-4-4-5-5-4-4---------------------|

C|---4-4-4-4-5-4-4-4--4-4-4-4-5-5-4-4---------------------|

PM------------------------------|





D|---16----17--16-------------------|

A|----------------------------------|

F|-----------------16---------------|

C|----------------------------------|

G|-------------------------X-X-X----|

C|-------------------------X-X-X----|





[Pre-Chorus] [2:16]



Zeig mir deins, ich zeig' dir meins

D|------------------------------------------------------|

A|------------------------------------------------------|

F|------------------------------------------------------|

C|------------------------------------------------------|

G|---4--4-4--5--5--4--4--4--4--4--4--4---5--5--4--4-----|

C|---4--4-4--5--5--4--4--4--4--4--4--4---5--5--4--4-----|

PM-| PM PM PM PM PM PM



Zeig mir deins, ich zeig' dir meins

D|------------------------------------------------------|

A|------------------------------------------------------|

F|------------------------------------------------------|

C|------------------------------------------------------|

G|---4--4-4--5--5--4--4--4--4--4--4--4---5----8---------|

C|---4--4-4--5--5--4--4--4--4--4--4--4---5----8---------|

PM-| PM PM PM PM





[Chorus] [2:23]

Em C Am

Wenn das Blut die Tinte küsst

Em C Am

Wenn der Schmerz das Fleisch umarmt

Em C

Ich zeige meine Haut

Am

Bilder, die mir so vertraut

Em C

Aus der Nadel blaue Flut

F Em

In den Poren kocht das Blut





[Bridge] [2:51]



Guitar 1

D|---------------------------------------------------------------|

A|---------------------------------------------------------------|

F|---------------------------------------------------------------|

C|-4-4-4-4-4-4-4--4-4-4-4-4-4-4----4-4-4-4-4-4-4--4-4-4-4-4-4-4--|

G|---------------------------------------------------------------|

C|---------------------------------------------------------------|

PM----------------------------------------------------------|



D|---------------------------------------------------------------|

A|---------------------------------------------------------------|

F|---------------------------------------------------------------|

C|-7-7-7-7-7-7-7--7-7-7-7-7-7-7----9-9-9-9-9-9-9--9-9-9-9-9-9-9--|

G|---------------------------------------------------------------|

C|---------------------------------------------------------------|

PM----------------------------------------------------------|



Guitar 2

D|---------------------------------------------------------------|

A|---------------------------------------------------------------|

F|---------------------------------------------------------------|

C|----------------------------------4-4-4-4-4-4-4--4-4-4-4-4-4-4-|

G|-5-5-5-5-5-5-5---5-5-5-5-2-2-2---------------------------------|

C|---------------------------------------------------------------|

PM-----------------------------------------------------------|



D|---------------------------------------------------------------|

A|---------------------------------------------------------------|

F|---------------------------------------------------------------|

C|----------------------------------7-7-7-7-4-4-4--7-7-7-7-4-4-4-|

G|-5-5-5-5-5-5-5---5-5-5-5-2-2-2---------------------------------|

C|---------------------------------------------------------------|

PM-----------------------------------------------------------|





C Am

Deinen Namen stech' ich mir

? Am

Dann bist du für immer hier

C/G F

Aber wenn du uns entzweist

C Am

Such' ich mir jemand, der genauso heißt





Guitar 1 [3:04] Repeat x4

D|---------------------------------------------------------------|

A|---------------------------------------------------------------|

F|---------------------------------------------------------------|

C|-4-4-4-4-4-4-4--4-4-4-4-4-4-4----4-4-4-4-4-4-4--4-4-4-4-4-4-4--|

G|---------------------------------------------------------------|

C|---------------------------------------------------------------|

PM----------------------------------------------------------|



D|---------------------------------------------------------------|

A|---------------------------------------------------------------|

F|---------------------------------------------------------------|

C|-7-7-7-7-7-7-7--7-7-7-7-7-7-7----9-9-9-9-9-9-9--9-9-9-9-9-9-9--|

G|---------------------------------------------------------------|

C|---------------------------------------------------------------|

PM----------------------------------------------------------|



Guitar 2 [3:04]

D|----------------------------------------------------------------------|

A|----------------------------------------------------------------------|

F|-7-7-7-7-7-7-7---7-7-7-7-7-7-7----9-9-9-9h11-11-11--9-9-9-9h11-11-11--|

C|----------------------------------------------------------------------|

G|----------------------------------------------------------------------|

C|----------------------------------------------------------------------| x2

PM----------------------------------------------------------------|



D|----------------------------------------------------------------------|

A|----------------------------------7-7-7-7h8-8-8----8-8-8-8/10-10-10---|

F|-7-7-7-7-7-7-7---7-7-7-7-7-7-7----------------------------------------|

C|----------------------------------------------------------------------|

G|----------------------------------------------------------------------|

C|----------------------------------------------------------------------|

PM----------------------------------------------------------------|



D|----------------------------------------------------------------------|

A|-5-5-5-5h7-7-7--5-5-5-5h7-7-7----7-7-7-7h8-8-8----8-8-8-X-8-----------|

F|----------------------------------------------------------------------|

C|----------------------------------------------------------------------|

G|----------------------------------------------------------------------|

C|----------------------------------------------------------------------|

PM-------------------------------------------|





[Chorus] [3:31]

Em C Am

Wenn das Blut die Tinte küsst

Em C Am

Wenn der Schmerz das Fleisch umarmt

Em C

Ich zeige meine Haut

Am

Bilder, die mir so vertraut

Em C

Aus der Nadel blaue Flut

F Em

In den Poren kocht das Blut



Discos en los que aparece este acorde: Rammstein

El acorde de TATTOO de Rammstein es una versión de la canción original realizada por colaboradores/usuarios de Coveralia.

¿Has encontrado algún error en esta página? Envíanos tu corrección del acorde