música
Buscador

Acorde de Take It Out On Me - Bullet For My Valentine

Letra de Take It Out On Me



Key: F



Tuning: Standard EADGBe



Chords used:

Dm - xx0231

Bb - x13331

F - 133211

C - x32010

Eb - x68886

Em - 022000

F - 133211

C/E - 032xxx

Gm - 355333

A - x02220





Intro:



Matt and Michael both:

Dm Eb

e|------------|---------------|

B|------------|---------------|

G|-7----------|---------------|

D|-7----------|---------------| x6

A|-5--5p3h5p3-|-6-5-3-5-0-----|

E|------------|-----------3-1-|

x3



Em F Dm Eb Dm Bb Eb Dm

e|------------|---------------|------------|---|---|---|--------|---|

B|------------|---------------|------------|---|---|---|--------|---|

G|------------|---------------|-7----------|-8-|-7-|-3-|-8--x-x-|-7-|

D|-2--2p0h2p0-|-3-2-0-2-------|-7----------|-8-|-7-|-3-|-8--x-x-|-7-|

A|-2----------|---------2-0---|-5--5p3h5p3-|-6-|-5-|-1-|-6--x-x-|-5-|

E|-0----------|-------------3-|------------|---|---|---|--------|---|

x3 x2





Verse 1:



Sing:

Dm Bb

I'm always thinking of

C Dm

you and all the things that you do

Dm Bb C

Self-centred satisfaction no

Dm(hold) Eb(hold)

more will I run from you

Dm Bb

Dysfunction family values

C Dm

I'll die but i will not fear

Dm Bb C

Stop talking words of wisdom you

Dm(hold) Eb(hold)

fool I'm standing right here





Michael: in "I run from you" and "standing right here"

Dm Eb

e|------------|------------|

B|------------|------------|

G|-7----------|-8----------|

D|-7----------|-8----------|

A|-5--5p3h5p3-|-6--6p5h6p5-|

E|------------|------------|





Chorus 1:



sing:

Bb Dm

The world is on your shoulders

Bb C

The weight it's crushing me

Bb Dm

Now we're all getting older

Bb

Take it out



Growl:

C

take it out take it out take it out

Eb Dm Eb Dm

Take it out on me take it out on me

Eb Dm Eb Dm

Take it out on me take it out on me

Eb Dm Bb Eb Dm

Vent your frustration on me





Verse 2:



Sing:

Dm Bb

I feel so much destruction

C Dm

in everything that you do

Dm Bb

Anger is creeping in me

C Dm(hold) Eb(hold)

watch i don't expolde on you

Dm Bb

My rage it comes so quickly

C Dm

one spark and I will ignite

Dm Bb C

Self-harming mutilation cuts deep

Dm(hold) Eb(hold)

but the pain feels so right





Michael: in "explode on you" and "pain feels so right"

Dm Eb

e|------------|------------|

B|------------|------------|

G|-7----------|-8----------|

D|-7----------|-8----------|

A|-5--5p3h5p3-|-6--6p5h6p5-|

E|------------|------------|





(Repeat chorus 1)





Interlude: Dm-- x4,



Bass Solo: Dm--Bb--C-- x2

Dm Bb C

G|----14----14----14----14-|---10---10---10---10-|----12----12----12----12-|

D|-12----12----12----12----|-8----8----8----8----|-10----10----10----10----|

A|-------------------------|---------------------|-------------------------|

E|-------------------------|---------------------|-------------------------|

x2

Bridge:



Sing:

C Dm

This fire burns inside

Bb C

Turning things inside

Dm Bb C

There's no where

Dm Bb C

left to hide

Dm Bb C Dm

This fire burns inside

Bb C

http://www.coveralia.com/acordes/take-it-out-on-me-bullet-for-my-valentine.php

This fire burns inside



Growl:

Dm Bb C

This rage can't be denied





Matt: while singing "inside..."

Dm Bb C

e|---------1----|-----1---3-1---1-|-----1---3-1---1-0-|

B|-----3------3-|-----------------|---1---1-----1---1-|

G|---2---2--2---|---3---3-----3---|-----------------0-|

D|-0------------|-----------------|-----------------2-| x4

A|--------------|-1---------------|-3---------------3-|

E|--------------|-----------------|-------------------|



Palm mute

Dm Bb C

e|-----------------|-----------------|-----------------|

B|-----------------|-----------------|-----------------|

G|-7-7-7-7-7-7-7-7-|-3-3-3-3-3-3-3-3-|-5-5-5-5-5-5-5-5-|

D|-7-7-7-7-7-7-7-7-|-3-3-3-3-3-3-3-3-|-5-5-5-5-5-5-5-5-| x2

A|-5-5-5-5-5-5-5-5-|-1-1-1-1-1-1-1-1-|-3-3-3-3-3-3-3-3-|

E|-----------------|-----------------|-----------------|

X2



Michael: while singing "left to hide.."

Dm Bb C

e|---|-8--6--5--------5-|--------|

B|-6-|-------------8----|-8--6-5-|

G|---|----------5-------|--------|

D|---|------------------|--------|

A|---|------------------|--------|

E|---|------------------|--------|



Dm Bb C

e|---|-8--6--5--------5-|---------------------|

B|-6-|-------------8----|-8--6-5--5--5h6p5----|

G|---|----------5-------|------------------5--|

D|---|------------------|---------------------|

A|---|------------------|---------------------|

E|---|------------------|---------------------|



Dm Bb C

e|-----|-8--6--5--------5-|-----------|

B|-----|-------------8----|-8--8/10-5-|

G|-5h7-|----------5-------|-----------|

D|-----|------------------|-----------|

A|-----|------------------|-----------|

E|-----|------------------|-----------|



Dm Bb C

e|-13-|-8--6--5--------5-|--------|

B|----|-------------8----|-8--6-5-|

G|----|----------5-------|--------|

D|----|------------------|--------|

A|----|------------------|--------|

E|----|------------------|--------|





Guitar Solo:



Moderate:



Matt: Dm--Bb--C-- x6,



Michael: x3

Dm Bb C

e|-5-------|---------|---------------------------|

B|---8-6---|-6-5-----|-6-6h8-6-6h8--8\6-5--5h6---|

G|-------7-|-----7-5-|-------------------------7-|

D|---------|---------|---------------------------|

A|---------|---------|---------------------------|

E|---------|---------|---------------------------|



Dm Bb C

e|-5-------|---------|---------5---------------|

B|---8-6---|-6b------|-6-6h8-6----8\6-5--5h6---|

G|-------7-|-----7-5-|-----------------------7-|

D|---------|---------|-------------------------|

A|---------|---------|-------------------------|

E|---------|---------|-------------------------|





Fast Shredding:



Matt: Dm-C/E-F-Gm-Bb-A-F



Michael:

Dm C/E F

e|---------5---------|-----------10-----------|------------8------------|

B|-------6---6-------|--------10----10--------|---------10---10---------|

G|-----7-------7-----|------9----------9------|------10---------10------|

D|---7-----------7---|---10--------------10---|---10---------------10---|

A|-5---------------5-|-7--------------------7-|-8---------------------8-|

E|-------------------|------------------------|-------------------------|



Gm Bb A F Dm

e|-------------10-------------|-17--15-|-13-|-12-|-13--|

B|----------11----11----------|--------|----|----|-----|

G|-------12----------12-------|--------|----|----|-----|

D|----12----------------12----|--------|----|----|-----|

A|-10----------------------10-|--------|----|----|-----|

E|----------------------------|--------|----|----|-----|





(Repeat 1st 2 parts of intro)





Chorus 2:



sing:

Bb Dm

The world is on your shoulders

Bb C

The weight it's crushing me

Bb Dm

Now we're all getting older

Bb

Take it out



Growl:

C

take it out take it out take it out

Eb Dm Eb Dm

Take it out on me take it out on me

Eb Em F Dm

Take it out on me take it out on me

Eb Dm Bb Eb Dm

Vent your frustration on me





Interlude: Dm--



Michael:

e|-5-------|---------|---------------------------|

B|---8-6---|-6-5-----|-6-6h8-6-6h8--8\6-5--5h6---|

G|-------7-|-----7-5-|-------------------------7-|

D|---------|---------|---------------------------|

A|---------|---------|---------------------------|

E|---------|---------|---------------------------|





Outro:



Growl:

Dm C Dm

Take it out





Letra subida por: Anónimo

El acorde de Take It Out On Me de Bullet For My Valentine es una versión de la canción original realizada por colaboradores/usuarios de Coveralia.

¿Has encontrado algún error en esta página? Envíanos tu corrección del acorde