música
Buscador

Acorde de Sweet Dreams - Marilyn Manson

Letra de Sweet Dreams

 e|----------------------------------| 

B|----------------------------------|

G|----------------------------------|

D|-----5---6---5--------------------|

A|-3-3---3---3--------6/8------5/6--|

E|------------- -4-4--------3-3----------| (2x)



Dm F Am

Sweet dreams are made of these

Dm F Am

Who am i to disagree?

Dm F Am

Travel the world and the seven seas

Dm F Am

everybody's looking for something

Dm F Am

some of them want to use you

Dm F Am

some of the them wanna get used by you

Dm F Am

some of them wanna abuse you

Dm F Am

some of them wanna be abused



e|----------------------------------|

B|----------------------------------|

G|----------------------------------|

D|-----5---6---5--------------------|

A|-3-3---3---3--------6/8------5/6--|

E|---------------4-4--------3-3----------| (4x)



Dm F Am

Sweet dreams are made of these



Dm F Am

Who am i to disagree?

Dm F Am

Travel the world and the seven seas



Dm F Am

everybody's looking for something

Dm F Am

some of them want to use you

Dm F Am

some of the them wanna get used by you

Dm F Am

some of them wanna abuse you

Dm F Am

some of them wanna be abused



e|----------------------------------|

http://www.coveralia.com/acordes/sweet-dreams-marilyn-manson.php

B|----------------------------------|

G|----------------------------------|

D|-----5---6---5--------------------|

A|-3-3---3---3--------6/8------5/6--|

E|-------------4-4--------3-3----------|

I wanna use you

and abuse you

I wanna know whats inside you

Movin on

Movin on

Movin on

Movin on

Movin on

Movin on

MOVIN ON!!!



Solo da guitarra



Dm F Am

Sweet dreams are made of these

Dm F Am

Who am i to disagree?



Dm F Am

Travel the world and the seven seas

Dm F Am

everybody's looking for something

Dm F Am

some of them want to use you

Dm F Am

some of the them wanna get used by you

Dm F Am

some of them wanna abuse you

Dm F Am

some of them wanna be abused



Dm

I wanna use you

F

and abuse you

Dm F Am

I wanna know whats inside you

Dm

I wanna use you

F

and abuse you



Dm F Am

I wanna know whats inside you

Letra subida por: Anónimo

Discos en los que aparece este acorde: Lest We Forget (The Best Of Marilyn Manson) , Smells Like Children ,

El acorde de Sweet Dreams de Marilyn Manson es una versión de la canción original realizada por colaboradores/usuarios de Coveralia.

¿Has encontrado algún error en esta página? Envíanos tu corrección del acorde