música
Buscador

Acorde de Swamp Song - Blur

Letra de Swamp Song

 (verses) 

F F/G G A# A#/C C D D/D# D# D C C C

E |-1---1/3---3--6---6/8---8---10---10/11---11-10-8--8--8----

B |-1---1/3---3--6---6/8---8---10---10/11---11-10-8--8--9----

G |-2---2/4---4--7---7/9---9---11---11/12---12-11-9--9--9---- x14

D |-3---3/5---5--8---8/10--10--12---12/13---13-12-10-10-10---

A |-3---3/5---5--8---8/10--10--12---12/13---13-12-10-10-10---

E |-1---1/3---3--6---6/8---8---10---10/11---11-10-8--8--8----



(Chorus)

D# D# D# D# D# D# D# D# D# D# A# C C A# C C C



E |-/11--11-11---/11--11-11---/11--11-11-11----6--8--8--6--8--8--8---

B |-/11--11-11---/11--11-11---/11--11-11-11----6--8--8--6--8--8--8---

G |-/12--12-12---/12--12-12---/12--12-12-12----7--9--9--7--9--9--9---

D |-/13--13-13---/13--13-13---/13--13-13-13----8--10-10-8--10-10-10--

A |-/13--13-13---/13--13-13---/13--13-13-13----8--10-10-8--10-10-10--

E |-/11--11-11---/11--11-11---/11--11-11-11----6--8--8--6--8--8--8---



D# D# D# D# D# D# D# D# D# D# A# C C A# C C C



E |-/11--11-11---/11--11-11---/11--11-11-11----6--8--8--6--8--8--8-/--

B |-/11--11-11---/11--11-11---/11--11-11-11----6--8--8--6--8--8--8-/--

G |-/12--12-12---/12--12-12---/12--12-12-12----7--9--9--7--9--9--9-/--

D |-/13--13-13---/13--13-13---/13--13-13-13----8--10-10-8--10-10-10/--

A |-/13--13-13---/13--13-13---/13--13-13-13----8--10-10-8--10-10-10/--

E |-/11--11-11---/11--11-11---/11--11-11-11----6--8--8--6--8--8--8-/--



G A A G A A G D D D C D D D

E |--3--5--5--3--5--5--3---10--10--10--8--10--10--10--

B |--3--5--5--3--5--5--3---10--10--10--8--10--10--10--

G |--4--6--6--4--6--6--4---11--11--11--8--11--11--11--

D |--5--7--7--5--7--7--5---12--12--12--8--12--12--12--

A |--5--7--7--5--7--7--5---12--12--12--8--12--12--12--

E |--3--5--5--3--5--5--3---10--10--10--8--10--10--10--



G A A G A A G D

E |--3--5--5--3--5--5--3---10-10-10-10-10-10-

B |--3--5--5--3--5--5--3---10-10-10-10-10-10-

G |--4--6--6--4--6--6--4---11------------

D |--5--7--7--5--7--7--5---12------------

A |--5--7--7--5--7--7--5---12------------

E |--3--5--5--3--5--5--3---10------------



(end)

(W/ chords of the verses playing in the back the lead or taped over)



(guitar)

E |--12--12/14--14---17--17/19--19--21--21/22--22-21--19--19--19----

B |-----------------------------------------------------------------

G |-----------------------------------------------------------------

D |-----------------------------------------------------------------

A |-----------------------------------------------------------------

E |-----------------------------------------------------------------



(heres the lyrics and chords over them)



(verse 1)

F F/G G A# A#/C C D D/D# D# D C C C

give me good times

F F/G G A# A#/C C D D/D# D# D C C C

give me soul lines

F F/G G A# A#/C C D D/D# D# D C C C

give me fever

F F/G G A# A#/C C D D/D# D# D C C C

i'm a believer



F F/G G A# A#/C C D D/D# D# D C C C

give me insane

F F/G G A# A#/C C D D/D# D# D C C C

give me space brain

F F/G G A# A#/C C D D/D# D# D C C C

give me music, give me love

F F/G G A# A#/C C D D/D# D# D C C C

abandon us in love



F F/G G A# A#/C C D D/D# D# D C C C

give me good times

F F/G G A# A#/C C D D/D# D# D C C C

there no joke rhymes

F F/G G A# A#/C C D D/D# D# D C C C

give me easy breathing

F F/G G A# A#/C C D D/D# D# D C C C

give me everything

http://www.coveralia.com/acordes/swamp-song-blur.php

F F/G G A# A#/C C D D/D# D# D C C C

everything, everything



(Chorus)



( D# A# C A# C )



(wacca wacca)

( D# A# C A# C )

( G A G A G D C D )

( G A A G A G D )



(verse 2 - use power chords and put alot of bass into it from this point on)



F F/G G A# A#/C C D D/D# D# D C C C

give me good times

F F/G G A# A#/C C D D/D# D# D C C C

and give me soul lines

F F/G G A# A#/C C D D/D# D# D C C C

give me fever

F F/G G A# A#/C C D D/D# D# D C C C

i'm a believer



F F/G G A# A#/C C D D/D# D# D C C C

give me insane

F F/G G A# A#/C C D D/D# D# D C C C

give me space brain

F F/G G A# A#/C C D D/D# D# D C C C

dont leave me ever

F F/G G A# A#/C C D D/D# D# D C C C

i live forever.............yes we will



(Chorus)

D# A# C A# C



i know we will

D# A# C A# C



yes we will

G A G A G D C D

G A A G A A G D



(verse 3)



F F/G G A# A#/C C D D/D# D# D C C C

give me good times

F F/G G A# A#/C C D D/D# D# D C C C

and give me soul lines

F F/G G A# A#/C C D D/D# D# D C C C

give me fever

F F/G G A# A#/C C D D/D# D# D C C C

i'm a believer..u know i am



F F/G G A# A#/C C D D/D# D# D C C C

give me insane

F F/G G A# A#/C C D D/D# D# D C C C

give me space brain

F F/G G A# A#/C C D D/D# D# D C C C

give me music that i love

F F/G G A# A#/C C D D/D# D# D C C C

i need penicillin (im not sure of this line)



(Chorus)

D# A# C A# C



stick it in my veins

D# A# C A# C



stick it in my veins

G A G A G D C D

stick it in my veins

G A G A G D

stick it in my veins



The end of song) play that tab part now

F F/G G A# A#/C C D D/D# D# D C C C

La-la la-la la-la-la-la-la-la

F F/G G A# A#/C C D D/D# D# D C C C

La-la la-la la-la-la-la-la-la

F F/G G A# A#/C C D D/D# D# D C C C

La-la la-la la-la-la-la-la-la

F F/G G A# A#/C C D D/D# D# D C C C

La-la la-la la-la-la-la-la-la

Letra subida por: Anónimo

Discos en los que aparece este acorde: 13

El acorde de Swamp Song de Blur es una versión de la canción original realizada por colaboradores/usuarios de Coveralia.

¿Has encontrado algún error en esta página? Envíanos tu corrección del acorde