música
Buscador

Acorde de Susanne - Weezer - Bso Mallrats

 

{Chorus}

A D/A B/E F#

Suzanne you're all that I wanted from a girl

A D/A F#

You're all that I need in the world

C#/G#

I'm your child

A

Make me blush

B

Drive me wild



{Verse}

A D/A B/E F#

Suzzane ooOoooOOo you're all that I want in

B A A/G#

When I met you I was all alone

E F# G# A A/G#

Cold and hungry cryin' on the phone

F# B A A/G#

You baked me brownies and said "don't you cry"

E F# G#

And gave me the coat off your back



Suzanne you're all that I wanted from a girl

You're all that I need in the world

I'm your child

Make me Blush

Drive me wild



Even Izzy's bashin' Axl Rose

When I call you put them all on hold

And said on me that you'd do anything



E F# G# D/A B D/A A D/A C#/G# B

And all I can say is "I haven't much I can give you in return"

D/A B D/A A D/A C#/G# B

Only my heart and I promise not to (try?)

D/A B/E A E A E D/A

I'll sing to you every day and every night

B/E

Suzanne, I'm your man





Solo (play verse under the solo}



---------------------------------------------------------------------------

---------------------------------------------------------------------------

-6-4-6-4-2-4-6h7p6h7/8--7-6-7----13-11-13-11-11h13p11h13p11--9-9-11-9-6-6--

---------------------------------------------------------------------------

---------------------------------------------------------------------------

---------------------------------------------------------------------------



----------------------------------------------------------16----16-12-16---

----/17-17171717171717-17-15-14-14-15-14-12-12-12--12-12-----12----------10

-9-------------------------------------------------------------------------

---------------------------------------------------------------------------

---------------------------------------------------------------------------

---------------------------------------------------------------------------



-16----16-12-16-17---------------------------------------------------------

----12---------------------------------------------------------------------

---------------------------------------------------------------------------

---------------------------------------------------------------------------

---------------------------------------------------------------------------

---------------------------------------------------------------------------









A A# A A

Of a girl! YEA!



---------------------------

---------------------------

7-7-7-7-7-8-8-8-8-8-7------

---------------------------

5-5-5-5-5-6-6-6-6-6-5------

---------------------------





"Suzanne" by Weezer

music from the motion picture "Mallrats"





(Figure I)



Suzanne... all... wanted of a...

-|-------------------------------------------------

-|-------------------------------------------------

-|-----------------------6-6-6-6-6-6-8-8-8-8-8-8---

-|-----6-6-6-6-6-6-6-6-6-6-6-6-6-6-6-8-8-8-8-8-8---

-|-----6-6-6-6-6-6-6-6-6-4-4-4-4-4-4-6-6-6-6-6-6---

-|-----4-4-4-4-4-4-4-4-4-4-4-4-4-4-4-6-6-6-6-6-6---



girl... you're... need... world...

-|-------------------------------------------------------------

-|-------------------------------------------------------------

-|-------------------------------6-6-6-6-6-6-------------------

-|-3-3-3-3-3-3-3-3-3-6-6-6-6-6-6-6-6-6-6-6-6-3-3-3-3-3-3-3-3-3-

http://www.coveralia.com/acordes/susanne-weezer.php

-|-3-3-3-3-3-3-3-3-3-6-6-6-6-6-6-4-4-4-4-4-4-3-3-3-3-3-3-3-3-3-

-|-1-1-1-1-1-1-1-1-1-4-4-4-4-4-4-4-4-4-4-4-4-1-1-1-1-1-1-1-1-1-



child... blush... wi-ild...

-|--------------------------------------------------------------

-|--------------------------------------------------------------

-|--------------------------------------

-|-5-5-5-5-5-5-6-6-6-6-6-6-8-8-8-8-8-8--------------------

-|-5-5-5-5-5-5-6-6-6-6-6-6-8-8-8-8-8-8--------------------

-|-3-3-3-3-3-3-4-4-4-4-4-4-6-6-6-6-6-6--------------------



Suzanne OOOooo all... wanted...

-|-------------------------------------------------

-|-------------------------------------------------

-|-----------------------6-6-6-6-6-6-8-8-8-8-8-8---

-|-----6-6-6-6-6-6-6-6-6-6-6-6-6-6-6-8-8-8-8-8-8---

-|-----6-6-6-6-6-6-6-6-6-4-4-4-4-4-4-6-6-6-6-6-6---

-|-----4-4-4-4-4-4-4-4-4-4-4-4-4-4-4-6-6-6-6-6-6---



When I met you... all alone...

-|--------------------------------------------------

-|--------------------------------------------------

-|--------------------------------------------------

-|-------------------------------------------------

-|-3-3-3-3-3-3-3-3-3-3-3-3/8-8-8-8-8-8-8-8-8-8-8-8--

-|-1-1-1-1-1-1-1-1-1-1-1-1/6-6-6-6-6-6-4-4-4-4-4-4--



cold and hungry... on the phone

-|--------------------------------------------------

-|--------------------------------------------------

-|--------------------------------------------------

-|--------------------------------------------------

-|-6-6-6-6-6-6-6-6-6-6-6-6-6-6-6-6-6-6-6-6-6-6-6-6--

-|-3-3-3-3-3-3-3-3-3-3-3-3-4-4-4-4-4-4-3-3-3-3-3-3--



You baked... don't... cry...

-|--------------------------------------------------

-|--------------------------------------------------

-|--------------------------------------------------

-|-------------------------------------------------

-|-3-3-3-3-3-3-3-3-3-3-3-3/8-8-8-8-8-8-8-8-8-8-8-8--

-|-1-1-1-1-1-1-1-1-1-1-1-1/6-6-6-6-6-6-4-4-4-4-4-4-





You gave me the coat...

-|---------------------------

-|---------------------------

-|---------------------------

-|---------------------------

-|-6-6-6-6-6-6-6-6-6-6-6-6---

-|-3-3-3-3-3-3-3-3-3-3-3-3--- (back to figure I)







-solo-



(back to Figure I {1 more time})





(end) YEA!

-|---------------------------------4-

-|---------------------------------4-

-|-------------6-6-6-6-6-6---------5-

-|-6-6-6-6-6-6-6-6-6-6-6-6-6-------6-(let ring)

-|-6-6-6-6-6-6-4-4-4-4-4-4-6-------6-

-|-4-4-4-4-4-4-4-4-4-4-4-4-4-------4-





Lyrics:



Suzanne, you're all that I wanted of a girl

You're all that I need in the world

I'm your child, make me blush, drive me wild }chorus

Suzanne OOOooooOooooo you're all that I wanted



When I met you I was all alone

Cold and hungry cryin' on the phone

You baked be brownies and said "Don't you cry"

You gave me the coat off your back



{chorus}



Even Izzy, Slash, and Axl Rose

When I call you put 'em all on hold

You said I'll kneel at you (?) do anything

And all I can do is say that



I haven't much I can give you in return

Only my heart and I promise not to turn

I sing to you, everyday and every night

Suzanne, I'm your man



-solo-



Suzanne, you're all that I wanted of a girl, OH YEA!

You're all that I need in the world

I'm your child, make me blush, drive me wild

Suzanne, OOOooooOooooo you're all that I wanted

Of a girl...YEA!



Letra subida por: Anónimo

Discos en los que aparece este acorde: Bso Mallrats , Weezer

El acorde de Susanne - Weezer de Bso Mallrats es una versión de la canción original realizada por colaboradores/usuarios de Coveralia.

¿Has encontrado algún error en esta página? Envíanos tu corrección del acorde