música
Buscador

Acorde de Surrender - Cash Cash

Letra de Surrender





INTRO

E|-----------------------------|-----------------------------|

B|-----------------------------|--------------------6--------|

G|----------6-5-5-5-6-5--------|----------6-8-8-8-8---5-6----|

D|----8-6-8-------------8-6----|----8-6-8--------------------|

A|-----------------------------|-----------------------------|

E|-----------------------------|-----------------------------|





VERSE 1

F# G#

I was running on an empty heart,

F# G#

Not a trace of gasoline

F# G#

Trying to dim every single spark

A#m G#

That could hurt, that could burn all of me





VERSE 2

F# G#

Like a soldier on the battleground

F# G#

Lying wounded on the field

F# G#

I was fighting alone with a broken sword

A#m G#

Now I'm caught in a war with no shield





CHORUS

F# G# A#m

If you hold me now and leave me never,

G# F#

Say you'll stay with me forever

G# A#m G#

Then I__ surrender, surrender

F# G# A#m

If you hold me now and leave me never,

G# F#

say you'll stay with me forever

G# A#m G#

Then I__ surrender, surrender



E|-----------------------------|-----------------------------|

B|-----------------------------|--------------------6--------|

G|----------6-5-5-5-6-5--------|----------6-8-8-8-8---5-6----|

D|----8-6-8-------------8-6----|----8-6-8--------------------|

A|-----------------------------|-----------------------------|

E|-----------------------------|-----------------------------|

F# G#

E|-----------------------------|-----------------------------|

B|-----------------------------|--------------------6--------|

G|----------6-5-5-5-6-5--------|----------6-8-8-8-8---5-6----|

D|----8-6-8-------------8-6----|----8-6-8--------------------|

A|-----------------------------|-----------------------------|

E|-----------------------------|-----------------------------|

Surrender, surrender



VERSE 3

F# G#

I pushed and pulled all the ones that tried,

F# G#

Then I watched them fade away

F# G#

As I look around a vacant room,

A#m G#

I see nobody left here to blame





VERSE 4

F# G#

Cause I made myself a prisoner

F# G#

Shackled up by all my fears

http://www.coveralia.com/acordes/surrender-cash-cash.php

F# G#

But I feel you breaking away at the walls,

A#m G#

Make them fall make them all disappear





CHORUS

F# G# A#m

If you hold me now and leave me never,

G# F#

Say you'll stay with me forever

G# A#m G#

Then I__ surrender, surrender

F# G# A#m

If you hold me now and leave me never,

G# F#

say you'll stay with me forever

G# A#m G#

Then I__ surrender, surrender



E|-----------------------------|-----------------------------|

B|-----------------------------|--------------------6--------|

G|----------6-5-5-5-6-5--------|----------6-8-8-8-8---5-6----|

D|----8-6-8-------------8-6----|----8-6-8--------------------|

A|-----------------------------|-----------------------------|

E|-----------------------------|-----------------------------|

F# G#

E|-----------------------------|-----------------------------|

B|-----------------------------|--------------------6--------|

G|----------6-5-5-5-6-5--------|----------6-8-8-8-8---5-6----|

D|----8-6-8-------------8-6----|----8-6-8--------------------|

A|-----------------------------|-----------------------------|

E|-----------------------------|-----------------------------|

Surrender, surrender



ENDNG

F# G# A#m G# F#

E|------------------------------|------------------------------|

B|------------------------------|--------------------6---------|

G|----------6-5-5-5-6-5---------|----------6-8-8-8-8---5-6-----|

D|----8-6-8-------------8-6-----|----8-6-8---------------------|

A|------------------------------|------------------------------|

E|------------------------------|------------------------------|

Hold me now and leave me never,Say you'll stay with me forever





G# A#m G#

E|-----------------------------|-----------------------------|

B|-----------------------------|--------------------6--------|

G|----------6-5-5-5-6-5--------|----------6-8-8-8-8---5-6----|

D|----8-6-8-------------8-6----|----8-6-8--------------------|

A|-----------------------------|-----------------------------|

E|-----------------------------|-----------------------------|

Then I_____ surrender, surrender





E|-----------------------------|-----------------------------|

B|-----------------------------|--------------------6--------|

G|----------6-5-5-5-6-5--------|----------6-8-8-8-8---5-6----|

D|----8-6-8-------------8-6----|----8-6-8--------------------|

A|-----------------------------|-----------------------------|

E|-----------------------------|-----------------------------|





G# A#m G#

E|-----------------------------|-----------------------------|

B|-----------------------------|--------------------6--------|

G|----------6-5-5-5-6-5--------|----------6-8-8-8-8---5-6----|

D|----8-6-8-------------8-6----|----8-6-8--------------------|

A|-----------------------------|-----------------------------|

E|-----------------------------|-----------------------------|

Then I_____ surrender, surrender



F# G# F#

Ooh Ohh Ooh Ooh Ooh Ooh Ooh Ooh, Surrender





Letra subida por: Anónimo

Discos en los que aparece este acorde: Surrender (Cd Single) , Blood, Sweat & 3 Years

El acorde de Surrender de Cash Cash es una versión de la canción original realizada por colaboradores/usuarios de Coveralia.

¿Has encontrado algún error en esta página? Envíanos tu corrección del acorde