música
Buscador

Acorde de Summer's Coming Around Again - Carly Simon

Letra de Summer's Coming Around Again

 Intro: 

e|---5-----7-----5-----7-----5-----5/5-----7-----5-----7-----5-----5-5/

B|----------------------------------/----5-----5-----5-----5-----5----/

G|-------7-----7-----7-----7-----7--/---------------------------------/

D|-----7-----7-----7-----7-----7----/--7-----7-----7-----7-----7------/

A|----------------------------------/---------------------------------/

E|0---------------------------------/---------------------------------/





Bm7 Bm6

Here now

Bm7 Bm6 Am7 A6sus2 Am7 - A6sus2

summer's coming a - round a - gain

Bm7 Bm6

Every year

Bm7 Bm6 Am7 A6sus2 - Am7 - A6sus2

it seems to come in this way

Bb13 A13 G13

Be - fore you know it you've fallen in love

F#7 Bm7 Bm6/E /

But be sure it's love before you sail away





Bm7 Bm6

You see

Bm7 Bm6 Am7 A6sus2 Am7 - A6sus2

someone wearing a sunny face

Bm7 Bm6

You want to know him

Bm7 Bm6 Am7 A6sus2 - Am7 - A6sus2

any - way that you can

Bb13 A13

Tell him you're just in from Shanghai

G13 F#7 Bm7 F# - F#7 /

And his smile you just can't pass by





A Asus2/G -

Follow him away

A Asus2/G - G#6 /

Follow him away





Break:

Ebmaj7 - Emaj7 - C#º7 / - C#º7+5 / -

Bm7 - Bm6 - Bm7 - Bm6 - Am7 - A6sus2 - Am7 - A6sus2 -

Bm7 - Bm6 - Bm7 - Bm6 - Am7 - A6sus2 - Am7 - A6sus2 -

Bb13 - A13 - G13 - F#7 - Bm7 - F# - F#7 /





A Asus2/G -

Follow him away

A Asus2/G - G#6 /

Follow him away



http://www.coveralia.com/acordes/summer-s-coming-around-again-carly-simon.php



Bm7 Bm6

Sad to say

Bm7 Bm6 Am7 A6sus2 Am7 - A6sus2

he hasn't seen you come by this way

Bm7 Bm6

His sunny smile

Bm7 Bm6 Am7 A6sus2 - Am7 - A6sus2

just re - flects sunny days

Bb13 A13 G13

Haven't you seen his face before Every year

F#7 Bm7 (Bm7)

it seems to come this way

G13

Every year

F#7 Bm7

it seems to come this way





Outro:

e|------7-----------7----------/5-----7-----5-----7----/

B|7-----------7-----------7----/----5-----5-----5-----5/

G|----7-----7-----7-----7-----7/-----------------------/

D|--7-----7-----7-----7-----7--/--7-----7-----7-----7--/

A|-----------------------------/-----------------------/

E|-----------------------------/-----------------------/



e|------7-----------7-----/5-----7-----5-----7----/

B|7-----------7-----------/----5-----5-----5-----5/

G|----7-----7-----7-----7-/-----------------------/

D|--7-----7-----7-----7---/--7-----7-----7-----7--/

A|------------------------/-----------------------/

E|------------------------/------0----------------/



e|7-----9-----10-----9-----7-----7----/5-----5----------/

B|------------------------------------/----------7-7----/

G|----7-----7------7-----7-----7-----7/----7----------9-/

D|--7-----7------7-----7-----7-----7--/--7-----7----7---/

A|------------------------------------/-----------------/

E|------------------------------------/-----------------/



e|7-----------7-----------/7-----7-------------/

B|------7-----------10----/--------------10----/

G|----9-----9-----9------9/----9-----9--------9/

D|--7-----7-----7------7--/--7-----7--------7--/

A|------------------------/------------7-------/

E|------------------------/--------------------/



e|10----------10-----------9-----------9--------|

B|------7------------7-----------7--------------|

G|----9-----9------9-----9-----9-----9----------|

D|--7-----7------7-----7-----7-----7------------|

A|7-----7-----7------7-----7-----7-----7--------|

E|----------------------------------------------|

Letra subida por: Anónimo

Discos en los que aparece este acorde: Anticipation

El acorde de Summer's Coming Around Again de Carly Simon es una versión de la canción original realizada por colaboradores/usuarios de Coveralia.

¿Has encontrado algún error en esta página? Envíanos tu corrección del acorde