música
Buscador

Acorde de Suavecito - Ricardo Arjona

Letra de Suavecito

INTRO:



G D/F#

E||---------------------------------------|

B||---------------------------------------|

G||--------0---/2/4/2---------2---2/4/2---|

D||------0---0--------------0---0---------|

A||----2------------------0---------------|

E||--3------------------2-----------------|



Em

---------(0)-----(3)h(5)-------(3)----||

---------(0)--(3)---------(3)--(3)----||

--------------------------------------||

-------2------------------------------||

-----2--------------------------------||

---0----------------------------------||





G D Em

Suavecito me pusiste todo en su lugar

C G

suavecito, como juego para armar

D Em

empezaste corrigiendo males al azar

C G C G

como al barro el alfarero, como brisa de aguacero

D C G

conquistaste, suavecito.



Colocaste besos justamente en el lugar

suavecitos, cirugía para curar

las heridas que dejo el pasado sin sanar

y en el caos de mi infierno instalaste tu gobierno

y abrazaste suavecito.



http://www.coveralia.com/acordes/suavecito-ricardo-arjona.php

G D Em C G

Suavecito, fuiste casi imperceptible

D Em

sin prisas de a poquito

C G D

colocaste tu bandera inamovible,

G D Em C G

suavecito, fuiste tan demoledora

D Em

pasito con pasito

C G D

tu paciencia arrolladora me salvo

G

suavecito.



Suavecito fui ganando con saber perder

suavecito sin afanes de imponer

con la calma que viene del tacto de mujer

como huella de gaviota, como se forma una gota

me atrapaste suavecito.



Me aceptaste como un cero izquierdo y sin valor

me peleaste sin nada a tu favor

con la suavidad con la que se mueve un rumor,

con el paso de un anciano, con paciencia de artesano,

me salvaste, suavecito.



Suavecito, fuiste casi imperceptible

sin prisas de a poquito

colocaste tu bandera inamovible,

suavecito, fuiste tan demoledora

pasito con pasito

tu paciencia arrolladora me salvo

suavecito.

Discos en los que aparece este acorde: 5to Piso

El acorde de Suavecito de Ricardo Arjona es una versión de la canción original realizada por colaboradores/usuarios de Coveralia.

¿Has encontrado algún error en esta página? Envíanos tu corrección del acorde