música
Buscador

Acorde de Still Into You - Paramore

Letra de Still Into You

 Intro/Verso: 

e|---------------------------------------------------------------------------------------| 
B|---------------------------------------------------------------------------------------| 
G|---------------------------------------------------------------------------------------| 
D|------------------2-----------------2--------------------2---------------------2-------| 
A|------------0--3--------------0--3----3-----------0--3------------------0--3-----3-----| 
E|----1----1------------1----1--------------1----1-----------------1----1----------------| 

e|---------------------------------------------------------------------------------------| 
B|---------------------------------------------------------------------------------------| 
G|---------------------------------------------------------------------------------------| 
D|-------------------2------------------2----------------------2-------------------2-----| 
A|----5----5---0--3------5----5---0--3-----3----5----5---0--3-------5----5---0--3-----3--| 
E|---------------------------------------------------------------------------------------| x2 



Verso: 

Can't count the years on one hand, 

that we've been together. 

I need the other one to hold you, 

make you feel, make you feel better. 

It's not a walk in the park, 

to love each other. 

But when our fingers interlock, 

can't deny, can't deny your worth it. 




(mute)                Bb5 
Cause after all this time, 
      C5        F5 
I'm still into you. 
(strum)                  Bb5       C5 
I should be over all the butterflies, 
              F5 
But I'm into you.  (I'm into you) 
                     Bb5        C5 
And baby even on our worst nights, 
          F5 
I'm into you.  (I'm into you) 
                       Bb5         C5 
Let 'em wonder how we got this far, 
                               D5       F5 
Cause I don't really need to wonder at all. 
                      Bb5 
Yeah after all this time, 
      C5        F5 
I'm still into you. 



 Verse intro riff: 

e|---------------------------------------------------------------------------------------| 
B|---------------------------------------------------------------------------------------| 
G|---------------------------------------------------------------------------------------| 
D|------------------2-----------------2--------------------2---------------------2-------| 
A|------------0--3--------------0--3----3-----------0--3------------------0--3-----3-----| 
E|----1----1------------1----1--------------1----1-----------------1----1----------------| x1 

Verso: 

e|---------------------------------------------------------------------------------------| 
B|---------------------------------------------------------------------------------------| 
G|---------------------------------------------------------------------------------------| 
D|------------------2-----------------2--------------------2---------------------2-------| 
A|------------0--3--------------0--3----3-----------0--3------------------0--3-----3-----| 
E|----1----1------------1----1--------------1----1-----------------1----1----------------| 

e|---------------------------------------------------------------------------------------| 
B|---------------------------------------------------------------------------------------| 
G|---------------------------------------------------------------------------------------| 
D|-------------------2------------------2----------------------2-------------------2-----| 
A|----5----5---0--3------5----5---0--3-----3----5----5---0--3-------5----5---0--3-----3--| 
E|---------------------------------------------------------------------------------------| x2 



Verso 2: 

Recount the night that I first, 

met your mother. 

And on the drive back to my house, 

I told you that, I told you that I loved ya. 

You felt the weight of the world, 

fall off your shoulder. 

And to your favorite song, 

we sang along, to the start of forever. 



(mute)              Bb5 
And after all this time, 
      C5        F5 
I'm still into you. 
(strum)                  Bb5        C5 
I should be over all the butterflies, 
              F5 
But I'm into you.  (I'm into you) 
                     Bb5        C5 
And baby even on our worst nights, 
          F5 
I'm into you.  (I'm into you) 
                       Bb5         C5 
Let 'em wonder how we got this far, 
                               D5       F5 
Cause I don't really need to wonder at all. 
                      Bb5 
Yeah after all this time, 
      C5        F5 
I'm still into you. 



 Solo:

e|--------------------------------------------| 
B|--------------------------------------------| 
G|--------------------------------------------| 
D|-------3--2----------3--2-------------------| 
A|-------------3-------------3--5--7--8--3~---| 
E|----1-------------1-------------------------| (4x) 



Verso 3: 

Some things just, some things just make sense. 

And one of those is you and I. (ohhhh) 

Some things just, some things just make sense. 

And even after all this time. 

(mute) 
Bb5 C5          F5 
      I'm into you. 
            Bb5 
Baby not a day goes by, 
          C5       F5 
that I'm not into you. 



(strum)                 Bb5        C5 
I should be over all the butterflies, 
              F5 
But I'm into you.  (I'm into you) 
                     Bb5        C5 
And baby even on our worst nights, 
          F5 
I'm into you.  (I'm into you) 
                       Bb5        C5 
Let 'em wonder how we got this far, 
                               D5       F5 
Cause I don't really need to wonder at all. 
                      Bb5 
Yeah after all this time, 
      C5        Bb5 
I'm still into you. 
      C5        Bb5 
I'm still into you. 
      C5        F5 
I'm still into you.

Letra subida por: Anónimo

Discos en los que aparece este acorde: Paramore , Still Into You (Cd Single) , Paramore (Japanese Edition)

El acorde de Still Into You de Paramore es una versión de la canción original realizada por colaboradores/usuarios de Coveralia.

¿Has encontrado algún error en esta página? Envíanos tu corrección del acorde