música
Buscador

Acorde de Step Inside Love (Original Demo) - Cilla Black

Letra de Step Inside Love (Original Demo)



G = 320033 Bb = x13331 C4 = xx3013

Dm7 = xx0211 D = xx0232 Eb = xx5343

C#7#9 = x4345x D4 = xx0233

C = x32010 D7 = xx0212

Cm7 = x35343 Am7 = x02010

B7#9 = x2123x F = 133211



[* Chorus 1 riff]

G = xx5003 C4/F = xx3013 G/B = x20003

Gmaj7/F# = xx4003 C/E = xx2013 (Am7) = x0xxxx

G/D = xx0003 Cm/D# = xx1013 (G/B) = x2xxxx

G6/E = xx2003 C5 = x3x013 (D7/C)= x3xxxx



[** Coda riff]

G = xx5003 C4/F = xx3013

Gmaj7/F# = xx4003 C/E = xx2013

G7/F = xx3003 Cm/D# = xx1013

G/D = xx0003 C5 = x3x013



***********************************************************************



[Verse 1]

G

Step in - side, love-------,

Dm7 C#7#9 C

Let me find you a place, where the cares of the day,

Cm7 B7#9

Will be carried away by the smile on your face,

Bb C D D4 D7

We are to - gether, now and for - ever, come ...my ...way!

Am7 D7 G

Step in - side love------, and stay!





[Chorus 1]

Bb Bb F C G Bb Bb F C

Step in - side, love! Step in - side, love!

G Bb Bb F C

Step in - side, love, I want you to...



* G C4 G (Am7)(G/B)(D7/C)

...stay----------------!

e |--3----3--3--3--|--3----3--3--3--|--3----3--3--3--|-------------|

B |--0----0--0--0--|--1----1--1--1--|--0----0--0--0--|-------------|

G |--0----0--0--0--|--0----0--0--0--|--0----0--0--0--|-------------|

D |--5----4--0--2--|--3----2--1--x--|--0----2--0--0--|-------------|

A |----------------|-------------3--|-------------2--|---0-2--3----|

E |----------------|----------------|----------------|-------------|





[Verse 2]

G

You look tired, love------,

Dm7 C#7#9 C

http://www.coveralia.com/acordes/step-inside-love--original-demo--cilla-black.php

Let me turn down the light, come in out of the cold,

Cm7 B7#9

Rest your head on my shoulder, and love me tonight,

Bb C D D4 D7

I'll always be here, if you should need me, night ...and ...day,

Am7 D7 G

Step in - side love------, and stay!





[Chorus 2]

Bb Bb F C G Bb Bb F C G

Step in - side, love! Step in - side, love!

Bb Bb F C Eb Am7 D7

Step in - side, love, I want you to stay---------!

| / / / / | / / / / |



[Verse 3]

G

When you leave me-------,

Dm7 C#7#9 C

Say you'll see me again, for I know, in my heart,

Cm7 B7#9

We will not be apart, and I'll miss you 'til then,

Bb C D D4 D7

We'll be to - gether, now and for - ever, come ...my ...way,

Am7 D7 G

Step in - side love------, and stay!





[Chorus 3]

Bb Bb F C G Bb Bb F C

Step in - side, love! I want you to ...step in - side, love!

G Bb Bb F C

You know I do! Step in - side, love! I want you to...



** G C4 G C4

...stay--------------------------------------------------!

e |--3---3--3---3--|--3---3--3---3--|--3---3--3---3--|--3---3--3---3--|

B |--0---0--0---0--|--1---1--1---1--|--0---0--0---0--|--1---1--1---1--|

G |--0---0--0---0--|--0---0--0---0--|--0---0--0---0--|--0---0--0---0--|

D |--5---4--3---0--|--3---2--1---0--|--5---4--3---0--|--3---2--1---0--|

A |----------------|----------------|----------------|----------------|

E |----------------|----------------|----------------|----------------|





[Coda]

G C4 G

e |--3---3--3---3--|--3---3--3---3--|---3---||

B |--0---0--0---0--|--1---1--1---1--|---3---||

G |--0---0--0---0--|--0---0--0---0--|---0---||

D |--5---4--3---0--|--3---2--1---0--|---0---||

A |----------------|----------------|---2---||

E |----------------|----------------|---3---||

Letra subida por: Anónimo

Discos en los que aparece este acorde: The Abbey Road Decade 1963-1973

El acorde de Step Inside Love (Original Demo) de Cilla Black es una versión de la canción original realizada por colaboradores/usuarios de Coveralia.

¿Has encontrado algún error en esta página? Envíanos tu corrección del acorde