música
Buscador

Acorde de Sos Como Yo - Horcas

Letra de Sos Como Yo

Intro: x2

e|------------------------------------------------------------------------------------------

B|------------------------------------------------------------------------------------------

G|------------------------------------------------------------------------------------------

D|-9---------------10-9-10-9----------------10-9-10-9---------------10-9-10-/12-/12-/12--10-

A|-7---------------8--7-8--7----------------8--7-8--7---------------8--7-8--/10-/10-/10--8--

E|---0-0-0--0-0-0-------------0-0-0--0-0-0-------------0-0-0--0-0-0-------------------------



E5 E5#/E5/E5#

No dejes de gritar

E5#/E5/E5#

Escupe tu voz

E5#/E5/E5#/G5/E5#/E5

Antes que estés muerto



No te dejes pisar

Dejá todo atrás

No querés zafar



Como intro



Siempre es la misma historia

Te siguen mintiendo

Y vos no hacés nada

Perdido estás en un sueño

No confias en nadie

No querés zafar



E5 / D5 / C5

Sos como yo

G5 / F5 / E5

Odio que pidas perdón



E5 / D5 / C5

Sos como yo

G5 / F5 / E5

Odio que pidas perdón



Sobre el estribillo hace algo como esto: (lo que está detrás de la linea la 2da vez)

e|------------------------------------------+-------|

B|-------------------------------------8----+-------|

G|------9--------7------5-----------7----9--+--7-9--|

D|----9---9--------7----5-----5--/9---------+-------|

A|--7--------7-5-----5--3--/7---------------+-------|

E|------------------------------------------+-------|



Como intro.



No dejes de gritar

Escupe tu voz

Antes que estés muerto

http://www.coveralia.com/acordes/sos-como-yo-horcas.php



No te dejes pisar

Dejá todo atrás

No querés zafar



Siempre es la misma historia

Te siguen mintiendo

Y vos no hacés nada

Perdido estás en un sueño

No confias en nadie

No querés zafar



Sos como yo

Odio que pidas perdón



Sos como yo

Odio que pidas perdón



SOLO GUITARRA



COMO INTRO



No dejes de gritar

Escupe tu voz

Antes que estés muerto



No te dejes pisar

Dejá todo atrás

No querés zafar



Siempre es la misma historia

Te siguen mintiendo

Y vos no hacés nada

Perdido estás en un sueño

No confias en nadie

No querés zafar



Sos como yo

Odio que pidas perdón



Sos como yo

Odio que pidas perdón



Sos como yo

Odio que pidas perdón



Odio que pidas perdón





Letra subida por: Anónimo

Discos en los que aparece este acorde: Eternos

El acorde de Sos Como Yo de Horcas es una versión de la canción original realizada por colaboradores/usuarios de Coveralia.

¿Has encontrado algún error en esta página? Envíanos tu corrección del acorde