música
Buscador

Acorde de Sorry - Alex G

Letra de Sorry

 

Chords:

e|-x-----x-------x------x-------x--|

B|-x-----x-------x------x-------x--|

G|-x-----x-------x------x-------x--|

D|-6-----2-------9------11------13-|

A|-6-----2-------9------11------13-|

E|-4-----0-------7------9-------10-|

G# Em B C# D#



Intro: G# Em G# Em





G# Em

I’ll get my cure

B

wait in the car

B Em

I won’t remember

B

who you are

B Em

I won’t remember

G#

who you are





G# Em

ill get my cure

B

wait in the car

B Em

i won’t remember

B

who you are





http://www.coveralia.com/acordes/sorry-alex-g.php

Instrumental break:

B G# Em

B C# D#

B G# Em

B C# D# G#





G# Em

I look at you

B

and feel the same

B Em

could you forgive me

B

for that pain





G# Em

pariah kid

B

lost in a game

B Em

can you forgive me

B

for that pain



Solo / outro part (may sound a little different without delay pedal):



e|--------------------------------------------11-----------------|

B|--------12----12-----------------12----14---12-----------------|

G|-11h13-----13----13b-s11---11h13----13-------------------------|

D|---------------------------------------------------------------|

A|---------------------------------------------------------------|

E|---------------------------------------------------------------|





Letra subida por: Anónimo

Discos en los que aparece este acorde: Dsu

El acorde de Sorry de Alex G es una versión de la canción original realizada por colaboradores/usuarios de Coveralia.

¿Has encontrado algún error en esta página? Envíanos tu corrección del acorde