música
Buscador

Acorde de Something - The Beatles

Letra de Something

Intro: F  Eb  G/D  C

F Eb G/D C

E|------------------------------------------|

B|-10-b13r12p10-11--12--13------------------|

G|------------------------------------------|

D|------------------------------------------|

A|------------------------------------------|

E|------------------------------------------|





Primeira Parte:

C C7M

Something in the way she moves

C7 F C/E

Attracts me like no other lover

D D7 G Am G/B

Something in the way she woos me



Segunda Parte:

Am Am7M

I don't want to leave her now

Am7 D7(9)

You know I believe, and how



Intro: F Eb G/D C



Primeira Parte - variação:

C C7M

Somewhere in her smile she knows

C7 F C/E

That I don't need no other lover

D D7 G Am G/B

Something in her style that shows me



Segunda Parte:

Am Am7M

I don't want to leave her now

Am7 D7(9)

You know I believe, and how



Intro: F Eb G/D A

F Eb G/D C

E|------------------------------------------|

B|-10-b13r12p10-11--12--12/14~--------------|

G|------------------------------------------|

D|------------------------------------------|

A|------------------------------------------|

E|------------------------------------------|





A/E A7M/E F#m F#m/E

You're asking me will my love grow

D G (A5 Ab5 G5 Gb5 F5 E5)

I don't know, I don't know



A/E A7M/E F#m F#m/E

You stick around, now it may show

D G (C)

I don't know, I don't know



Solo: C C7M C7 F

D D7 G A G/B

Am Am7M Am7 D7(9)

C C7M

E|------------------------------------------

B|--------8-------------8b10-b10r8----------

G|----7h9---9~------7h9------------9~-------

D|------------------------------------------

A|------------------------------------------

E|------------------------------------------

C7 F

E|------------------------------b12r10-8----

B|-----8/10-8-8/11-13-13-b15r13----------10~

G|-7h9--------------------------------------

http://www.coveralia.com/acordes/something-the-beatles.php

D|------------------------------------------

A|------------------------------------------

E|------------------------------------------

C/E D

E|------------------------------------------

B|-----13-13-----8-8----------------------

G|-/14---------/9---------------------------

D|------------------------/7~---------------

A|------------------------------------------

E|------------------------------------------

D7

E|------------------------------------------

B|---------7-7-b12r10-b12r10-b12r10---------

G|-----6/7----------------------------------

D|-97--------------------------------------

A|------------------------------------------

E|------------------------------------------

G Am G/B

E|-----------10----------10/12-11-10--------

B|-b12r108--12-12p1110--------------------

G|-----------12-----------------------------

D|------------------------------------------

A|------------------------------------------

E|------------------------------------------

Am Am7M

E|------------------------------------------

B|------------------------------------------

G|-7b9r7b9r7b9r7p5~--7b9r7b9r7b9r7b9r7p5---

D|------------------------------------------

A|------------------------------------------

E|------------------------------------------

Am7 D7(9)

E|------------------10/12-10-8/10-8---------

B|----------------------------------10------

G|-7b9r7b9r7p5/9-12-------------------------

D|------------------------------------------

A|------------------------------------------

E|------------------------------------------

F Eb G/D C

E|------------------------------------------

B|-10-b13r12p10-11-12--13~------------------

G|------------------------------------------

D|------------------------------------------

A|------------------------------------------

E|------------------------------------------





Intro: F Eb G/D C



C C7M

Something in the way she knows

C7 F C/E

And all I have to do is think of her

D D7 G Am G/B

Something in the things she shows me



Segunda Parte:

Am Am7M

I don't want to leave her now

Am7 D7(9)

You know I believe, and how



Intro: F Eb G/D A



Intro - variação final: F Eb G/D C

F Eb G/D C

E|------------------------------------------|

B|-10-b13r12p10-11-12--13-------------------|

G|---------------------12-------------------|

D|---------------------14-------------------|

A|------------------------------------------|

E|------------------------------------------|



El acorde de Something de The Beatles es una versión de la canción original realizada por colaboradores/usuarios de Coveralia.

¿Has encontrado algún error en esta página? Envíanos tu corrección del acorde