música
Buscador

Acorde de Solución Suicida - Horcas

Letra de Solución Suicida

Intro:

A# G#

e|------------------|----|-------------|

B|------------------|----|-------------|

G|------------------|----|-------------|

D|--------------6-8-|-x3-|-6--------6--|

A|--------6h8h9-----|----|---9-8-6--6--|

E|--6h8p9-----------|----|----------4--|



A#

e|------------------|

B|------------------|

G|------------------|

D|--------------6-8-| x8

A|--------6h8h9-----|

E|--6h8p9-----------|



A# F# G# A#

Yehhhhhhh!



A#

ESTAMOS A UN PASO DE LA OSCURIDAD

F#

PRODUCTO DE MENTES QUE NOS QUIEREN AHOGAR

G# A#

EN EL PANTANO CRUEL DE LA VIOLENCIA





A#

LLEGADO EL MOMENTO PARA SOPORTAR

F#

EL DURO TORMENTO, TENEMOS QUE LUCHAR

G# A#

CONTRA LOS QUE GENERAN LA DEMENCIA





D# C# A#

PRONTO UTILIZA TUS FUERZAS

F# G# A#

PARA VENCER

D# C# A#

A QUIENES DIA TRAS DIA

C# C A#

OCULTAN LA LUZ

D# C# A#

DEJANDO EN TI LAS IDEAS

F# G# F

DE LA CORRUPCION Y EL DOLOR

D# C# D# C# A#

DE LA CORRUPCION



e|------------------|

B|------------------|

G|------------------|

D|--------------6-8-| x8

A|--------6h8h9-----|

E|--6h8p9-----------|

Y EL DOLOR PRODUCTOR DE TU IMPACIENCIA



A#

ACTIVA TU MENTE PARA ELIMINAR

F#

EL DUENDE PERVERSO QUE DENTRO TUYO ESTA

G# A#

CARGANDOTE DE NEGATIVAS FUERZAS





D# C# A#

PRONTO UTILIZA TUS FUERZAS

F# G# A#

PARA VENCER

D# C# A#

A QUIENES DIA TRAS DIA

C# C A#

OCULTAN LA LUZ

D# C# A#

DEJANDO EN TI LAS IDEAS

F# G# F

DE LA CORRUPCION Y EL DOLOR

D# C# D# C# A#

DE LA CORRUPCION



http://www.coveralia.com/acordes/solucion-suicida-horcas.php

A# G# F# G#

e|------------------|

B|------------------|

G|------------------|

D|--------------6-8-| x7 y sigue el solo

A|--------6h8h9-----|

E|--6h8p9-----------|



Solo:

LA5# SOL5# FA5# SOL5# x2





A#

ESTAMOS A UN PASO DE LA OSCURIDAD

F#

PRODUCTO DE MENTES QUE NOS QUIEREN AHOGAR

G# A#

EN EL PANTANO CRUEL DE LA VIOLENCIA





A5#

LLEGADO EL MOMENTO PARA SOPORTAR

F5#

EL DURO TORMENTO, TENEMOS QUE LUCHAR

G5# A5#

CONTRA LOS QUE GENERAN LA DEMENCIA





D# C# A#

PRONTO UTILIZA TUS FUERZAS

F# G# A#

PARA VENCER

D# C# A#

A QUIENES DIA TRAS DIA

C# C A#

OCULTAN LA LUZ

D# C# A#

DEJANDO EN TI LAS IDEAS

F# G# F

DE LA CORRUPCION Y EL DOLOR

D# C# D# C# A#

DE LA CORRUPCION



A# G# F# G#

e|------------------|

B|------------------|

G|------------------|

D|--------------6-8-| x8

A|--------6h8h9-----|

E|--6h8h9-----------|



A# G# F# G#

Yehhhhhhh!

A# G# F# G#

A# G# C# D#



A#

e|------------------|

B|------------------|

G|------------------|

D|--------------6-8-| x8

A|--------6h8h9-----|

E|--6h8h9-----------|



A# G# A#

e|-----------------------|-----|-------------------------------------

B|------------------8-10-|-----|-8-----------------------------------

G|----------8h10h11------|-----|---11-10-8---------------------------

D|--8h10h11--------------|-x15-|-----------6-------------8-----------

A|-----------------------|-----|-----------6-------------8-----------

E|-----------------------|-----|-----------4-------------6-----------



D# A# F# A# A#

-----------------------------------------|

-----------------------------------------|

--8---8---8---8---8----------------------|

--8-8-8-8-8-8-8-8-8-8--4--8---------8-8--|

--6-8-6-8-6-8-6-8-6-8--4--8---------8-8--|

----6---6---6---6---6--2--6---------6-6--|



Civile no murio!

Letra subida por: Anónimo

Discos en los que aparece este acorde: Oid Mortales El Grito Sangrado , Horcas Vive , La Maldicion Continua

El acorde de Solución Suicida de Horcas es una versión de la canción original realizada por colaboradores/usuarios de Coveralia.

¿Has encontrado algún error en esta página? Envíanos tu corrección del acorde