música
Buscador

Acorde de Sober - Kelly Clarkson

Letra de Sober

Capo 2 



C G C? Am Fmaj7 Am7

F

-0----0---0------0-----0------3-----1-------------------------------|

-1----1---1------1-----1------1-----1-------------------------------|

-0----0---0------2-----2------0-----2-------------------------------|

-2----0---3------2-----3------2-----3-------------------------------|

-3----2---3------0-----x------0-----3-------------------------------|

-x----3---x------x-----x------x-----1-------------------------------|



Intro: C G C?

C

And I don’t know

G Am

This could break my heart or save me

C

Nothing’s real

G Am

Until you let go completely

C G Am

So here I go with all my thoughts I’ve been saving

C G Am

So here I go with all my fears weighing on me



Am G Fmaj7

Three months and I’m still sober

C G Am Fmaj7

Picked all my weeds but kept the flowers

C G Am Fmaj7

But I know it’s never really over



Verse 2 (same chords as verse 1)

And I don’t know

I could crash and burn but maybe

At the end of this road I might catch a glimpse of me

So I won’t worry about my timing, I want to get it right

No comparing, second guessing, no not this time



2

Am G Fmaj7

Three months and I’m still breathing

Am G Fmaj7 C

Been a long road since those hands I left my tears in but I know

G Am Fmaj7

http://www.coveralia.com/acordes/sober-kelly-clarkson.php

It’s never really over, no



C G Am F

Wake up



Am G

Three months and I’m still standing here

F

Three months and I’m getting better yeah

Am G F

Three months and I still am



Am G

Three months and it’s still harder now

F

Three months I’ve been living here without you now

Am G F

Three months yeah, three months



Am G

Three months and I’m still breathing

F

Three months and I still remember it

C G Am7

Three months and I wake up





--0----------0-----------0----------0-----------0--------0---------0------|

-------1----------1-----------1----------1--------------------------------|

-----2----2-----2---0-------0----0-----0----0-------2--------2--------2---|

--------------------------------------------------3---3----3---3----3---3-|

--------------------------------------------------------------------------|

--------------------------------------------------------------------------|



--0-------------|

----------------|

--------2-------| (x2)

-----3-----3----|

----------------|

----------------|



Three months and I’m still sober

Picked all my weeds but kept the flowers

Letra subida por: Anónimo

El acorde de Sober de Kelly Clarkson es una versión de la canción original realizada por colaboradores/usuarios de Coveralia.

¿Has encontrado algún error en esta página? Envíanos tu corrección del acorde