música
Buscador

Acorde de Smile - Weezer

Letra de Smile

 

Introdução:

e|------------------------------------------------------|

B|------------------------------------------------------|

G|------------------------------------------------------|

D|-----------------4-------------------------4----------|

A|--4--7-7---7--4-----7-7------4--7-7---7-4------7-7----|

E|------------------------------------------------------|



e|------------------------------------------------------|

B|------------------------------------------------------|

G|-----4-4---4-----6--4-4-------4-------4-------/8------|

D|--6--4-4---4--6--6--4-4----6--4---6---4-------/9------|

A|--6-----------6------------6------6-------------------|

E|------------------------------------------------------|







( E G#m A F# B/F# F#dim/C C#m/G# G#/B )

Open the door and let your love come down

Over the wall you're spinnin' round and round

'Cause you wanted some love

I'll make it happen





( A B E C#m/G# A B )

'Cause I don't want to break

Your fine face, I can't take

The way you wanna wrap me up

Inside your smile



( E G#m A F# B/F# F#dim/C C#m/G# G#/B )

Open your heart and let the good stuff out

Water me girl, and let me ease the drought

'Cause you wanted some love

I'll make it happen



( A B E C#m/G# A B )

'Cause I don't want to break

You fine face, I can't take

The way you wanna wrap me up

Inside your smile





( A B E5 D#/B C#m/G# B/G# A B )

I can't be gone darlin'

http://www.coveralia.com/acordes/smile-weezer.php

For very long

(No) never know what you're gonna do

Standin' there deep in front of you

Take a look in between my eyes

Because I'm back

Yeah



Solo:

E|------------------------------------------------------------|

e|------------------------------------------------------------|

G|----4-----4-----4-----4-4-4bv----4-6-4-6-4-6-4---6-6-6bv----|

D|-6-----6-----6----6-----------------------------------------|

A|------------------------------------------------------------|

E|------------------------------------------------------------|



e|-------------------------------|

B|-------------------------------|

G|-6--4-4-4-4bv--/----2-2-2--1---|

D|--------------------4-4-4--2---|

A|-------------------------------|

E|-------------------------------|









( A B E C#m/G# A B )

'Cause I don't want to break

You find things I can't take

The way you wanna wrap me up

Inside your smile



( A B E5 D#/B C#m/G# B/G# A B )

I can't be gone darlin'

For very long

(No) never know what your gonna do

Standin' there deep in front of you

Take a look into my eyes

Because I'm back

Yeah



( E G#m A F# B/F# F#dim/C C#m/G# G#/B )

Give me a chance if you can force yourself

Look at me girl and get up off your shelf

'Cause you wanted some love

I'll make it happen

Letra subida por: Anónimo

Discos en los que aparece este acorde: Green Album , Green Album (Uk Edition) , Green Album (Japan Edition)

El acorde de Smile de Weezer es una versión de la canción original realizada por colaboradores/usuarios de Coveralia.

¿Has encontrado algún error en esta página? Envíanos tu corrección del acorde